Oops, an error
Loading. Please wait.

Whatever bass

version 3
version 3

Whole song

Interactive

4,162 views 3 this week
3 commentsread comments
1 2 3 4 5
1 last vote to show rating
add to favorites
×
Save as Personal and add changes to this tab that will be seen only by you. Learn more ›
×
You can save this tab as Personal to edit and correct it or add notes. All changes will be seen only by you. Learn more »
launch autoscroll
font size
0
reset
guitar tuner
edit
Autoscroll
slow
fast
+/-
esc
set tempo
stop
Godsmack
Whatever

GDAC tuning

h=hammer
p=pop
*=let it ring

intro     :04
G----------------|
D----------------|    x8(listen to the song for the timing on these sections)
A----------------|
C-00--00--00--00-|

verse     :20
G--------------------|
D--------------------|    x8
A--------------------|
C-00--00--00--00-----|

chorus    :35
G----------------------------------------|
D----------------------------------------|    x1
A----------------------------------------|
C-0----7----6---6-6---0---7---10---55-33-|

:51
G----------------------------------|
D----------------------------------|   x1
A----------------------------------|
C-0--6-5-3-0--6-5-3-0--6-5-3-00----|

:59
G-----------------------|
D---------------    x12-|
A-----------------------|
C-00--00--00--00--------|

chorus    1:23
G---------------------------------------------|
D---------------------------------------------|    x2
A---------------------------------------------|
C-0----7----6---6-6---0---7---10---55-33------|

G---------------------------------------------|
D---------------------------------------------|   x2
A---------------------------------------------|
C-0--6-5-3-0--6-5-3-0--6-5-3-00---------------|

2:10
G-----------------------|
D---------------    x18-|
A-----------------------|
C-00--00--00--00--------|

2:42
G------------------------------|
D------------------------------|     x1
A------------------------------|
C-00-------00------00-------00-|

2:50
G----------------------------------|
D----------------------------------|   x2
A----------------------------------|
C-0--6-5-3-0--6-5-3-0--6-5-3-00----|

3:06
G--------------------|
D--------------------|    x8
A--------------------|
C-00--00--00--00-----|

and that's the song
it"s fun and it's easy

            
            
Suggest correction
Creating personal tab
Creating personal tab
You can edit any tab online and save it as your Personal.

You can edit, replace or remove any tab part or add personal notes – all changes will be seen only by you.

Personal tabs can be accessed anytime from any device, even offline.
Learn more »
Give kudos to tab author, rate the tab!
1 2 3 4 5
comments
print report bad tab
3 comments total.
0 reply
Pimptastico 10 Jun 25, 2008 12:41 PM

Add vers from ver 4 and i think u have it

+1 reply
thickice19 10 Jun 01, 2014 08:12 AM

Difficulty - Intermediate

Erm, I don't think this is intermediate, more like novice.

0 reply
Ges613 171 Mar 28, 2015 10:08 PM

I do think this is the last you hear of the song. Listen close you can hear him play this one last time otherwise five stars


G---------------------------------------------|
D---------------------------------------------|
A---------------------------------------------|
C-0--6-5-3-0--6-5-3-0--6-5-3-00---------------|

guest
You may want to rate the tab now too:
select rating
Wanna post a correction for this tab? Suggest correction