Oops, an error
Loading. Please wait.

Whiskey Hangover Bass Tab

version 1
version 1

Whole song

Interactive

4,507 views 1 this week
3 commentsread comments
1 2 3 4 5
accurate
x 3
add to favorites
launch autoscroll
font size
0
reset
guitar tuner
Autoscroll
slow
fast
+/-
esc
set tempo
stop
Help us to improve Ultimate-Guitar.com Take our survey!
×
Contributor
Difficulty
Tuning
Fender6 884
novice
C G C F A D
Song: Whiskey Hangover
Band: Godsmack
Tuning: Drop C

Here is the song "Whiskey Hangover" by the band "Godsmack" transcribed on bass!
All tab corrections welcome!

Intro (0:00)
                                         (x4)
F|------------------------------------------|
C|--*------------------------------------*--|
G|--*------7--------8-------7-----8-8-8--*--|
C|----0--0----0--0-----0--0---0-------------|

Verse 1 (0:14)

F|-------------------------------------------------|
C|--*----------------------------------------------|
G|--*--------7--------7--8--------7-------7--8--8--|
C|----0---0-----0----------0---0----0--------------|

                                                    (x3)
F|-----------------------------------------------------|
C|--------------------------------------------------*--|
G|-----------7--------7--8--------7--------8--8--8--*--|
C|----0---0-----0----------0---0----0------------------|

F|---------------------------------------------------|
C|---------------------------------------------------|
G|-----------7---------7--8--------7--------7--8--8--|
C|----0---0-----0----------0---0-----0---------------|

F|----------------------------|
C|----------------------------|
G|-----------7----------7--7--|
C|----0---0-----0-----0-------|

Chorus 1 (0:43)

F|--------|------------------------|
C|--------|------------------------|
G|--8-8-8-|--(Same as Intro (x4))--|
C|--------|------------------------|

Verse 2 (0:58)

F|-------------------------------------------------|
C|--*----------------------------------------------|
G|--*--------7--------7--8--------7-------7--8--8--|
C|----0---0-----0----------0---0----0--------------|

                                                    (x4)
F|-----------------------------------------------------|
C|--------------------------------------------------*--|
G|-----------7--------7--8--------7--------8--8--8--*--|
C|----0---0-----0----------0---0----0------------------|

Pre Chorus 1(1:28)

F|----------------------------------------------------|------------------------|
C|----------------------------------------------------|------------------------|
G|----5----5-5-5-5-5-5-4-----3----3-3-3-3-3---2-0-2---|--(Same as Intro (x1))--|
C|----------------------------------------------------|------------------------|

F|----------------------------------------------------|
C|----------------------------------------------------|
G|----5----5-5-5-5-5-5-4-----3----3-3-3-3-3---2-0-2---|
C|----------------------------------------------------|

Chorus 2 (1:39)

                                         (x8)
F|------------------------------------------|
C|--*------------------------------------*--|
G|--*------7--------8-------7-----8-8-8--*--|
C|----0--0----0--0-----0--0---0-------------|

Bridge (2:08)

F|--------------------------------|
C|--------------------------------|
G|---------------3---2------------|
C|--0-------------------5-4-3-----|

                                                                         (x4)
F|-----------------------------------------------------------------------------|
C|--*-----------------------------------------------------------------------*--|
G|--*------7-----7----7---------7---7---8-8------7---7---7---3---2----------*--|
C|----0-------0----0----0--0------0---0-----0------0---0---0----------5-4-3----|

F|-------------------------------------------|
C|-------------------------------------------|
G|---------7-----7----7---------7---7---8-8--|
C|----0-------0----0----0--0------0---0------|

Pre Chorus 2 (2:48) (x12)

Outro (3:40)

F|----------------------------|
C|----------------------------|
G|---------7-----7----7-------|
C|----0-------0----0----0--0--|
comments
We did not receive enough feedback on this tab! Please rate:
print report bad tab
1 2 3 4 5
3 comments total.
0 reply
Ryanuofm86 726 wrote on August 13 2009, 01:22 am

:cheers:

First two Whiskey Hangover tabs.
My guitar tab
Your Bass tab

Nice job.

+1 reply
jigmanga 12 wrote on November 10 2009, 08:58 pm

This song is in Drop D not Drop C

0 reply
tnk1172 11 wrote on January 6 2015, 02:04 am

Drop D...play it in C, you cause discontent in you band

I want to post or [tab]
guest
You may want to rate the tab now too:
select rating
Please do not post tabs as comments. Select "correction" instead!