Oops, an error
Loading. Please wait.

Written Word Tab

1 view 1 this week
no commentswrite comment
1 2 3 4 5
3 more votes to show rating
add to favorites
launch autoscroll
font size
0
reset
how to read this tab
guitar tuner
Autoscroll
slow
fast
+/-
esc
set tempo
stop
Help us to improve Ultimate-Guitar.com Take our survey!
×
Author
Difficulty
intermediate
[Intro/Verse Riff]

this is played for both the intro and verse (clean intro, distorted on verse)
e|---------------------------------------------------------------------------|
B|---------------------------------------------------------------------------|
G|---------------------------------------------------------------------------|
D|------------11------------------11-12-11-----------------------------------|
A|---12-11-12----12-11--12-11-12---------------------------------------------|
E|---------------------------------------------------------------------------|


[Chorus]

Live videos would suggest that there's no set rhythm to this, just strum it to fit, slide out into 2nd verse
e|---------------------------------------------------------------------------|
B|---------------------------------------------------------------------------|
G|---14----------------------------------------------------------------------|
D|----x----------------------------------------------------------------------|
A|---12----------------------------------------------------------------------|
E|---------------------------------------------------------------------------|


[Verse]

e|---------------------------------------------------------------------------|
B|---------------------------------------------------------------------------|
G|---------------------------------------------------------------------------|
D|------------11------------------11-12-11-----------------------------------|
A|---12-11-12----12-11--12-11-12---------------------------------------------|
E|---------------------------------------------------------------------------|


[Chorus]

Live videos would suggest that there's no set rhythm to this, just strum it to fit.
e|---------------------------------------------------------------------------|
B|---------------------------------------------------------------------------|
G|---14----------------------------------------------------------------------|
D|----x----------------------------------------------------------------------|
A|---12----------------------------------------------------------------------|
E|---------------------------------------------------------------------------|


[Verse]

e|---------------------------------------------------------------------------|
B|---------------------------------------------------------------------------|
G|---------------------------------------------------------------------------|
D|------------11------------------11-12-11-----------------------------------|
A|---12-11-12----12-11--12-11-12---------------------------------------------|
E|---------------------------------------------------------------------------|


[Chorus]

Live videos would suggest that there's no set rhythm to this, just strum it to fit.
e|---------------------------------------------------------------------------|
B|---------------------------------------------------------------------------|
G|---14----------------------------------------------------------------------|
D|----x----------------------------------------------------------------------|
A|---12----------------------------------------------------------------------|
E|---------------------------------------------------------------------------|


[Bridge]

e|---------------------------------------------------------------------------|
B|---------------------------------------------------------------------------|
G|---------------------------------------------------------------------------| 
D|---------14N--12N--11N-----------------------------------------------------|
A|----12N--------------------------------------------------------------------|
E|---------------------------------------------------------------------------|(x11)


[Outro]

e|---------------------------------------------------------------------------|
B|---------------------------------------------------------------------------|
G|---14----------------------------------------------------------------------|
D|----x----------------------------------------------------------------------|
A|---12----------------------------------------------------------------------|
E|---------------------------------------------------------------------------|
     PM building to crescendo then play chorus again and end on the tremolo riff

e|---------------------------------------------------------------------------|
B|---------------------------------------------------------------------------|
G|---------------------------------------------------------------------------| 
D|---------14N--12N--11N-----------------------------------------------------|
A|----12N--------------------------------------------------------------------|
E|---------------------------------------------------------------------------|(x5)



************************************

| x   Dead note
| PM  Palm mute
| N   Tremolo

************************************
Suggest correction
Give kudos to tab author, rate the tab!
1 2 3 4 5
comments
print report bad tab
guest
You may want to rate the tab now too:
select rating
Wanna post a correction for this tab? Suggest correction