Oops, an error
Loading. Please wait.

09-15-00 Part One tab

367 views 6 this week
1 commentread comment
1 2 3 4 5
x 3
add to favorites
×
Save as Personal and add changes to this tab that will be seen only by you. Learn more ›
×
You can save this tab as Personal to edit and correct it or add notes. All changes will be seen only by you. Learn more »
launch autoscroll
font size
0
reset
how to read this tab
guitar tuner
edit
Autoscroll
slow
fast
+/-
esc
set tempo
stop
Author
Difficulty
Godspeed You! Black Emperor - 09-15-00, Part One
     From Yanqui U.X.O. (2002)

Hey guys, sorry but Im going to tab this out in standard tuning because it's easier for me,
Im pretty sure these songs don't suffer too much from being in standard except for the screwdriver
bit, but feel free to transpose it into their tuning, it shouldn't be very difficult. Anyways,
Ill probably leave some stuff out, just gonna try to include all the main passages.

------------------------------------------------------------------------------------------
 Section 1
------------------------------------------------------------------------------------------

[0:00]

Gtr 1:
  fig 1a                       fig 1b at 1:11, 1:40
e|---------------------------|---------------------------|
B|---------------------------|---------------------------|
G|---------------------------|---------------------------| x a bunch
D|-9--8-6--------------------|-9--6-8--------------------|
A|-----------6--9-------7----|-----------6--9-------7----|
E|-------------------9-------|-------------------9-------|

  fig 1c around 2:00             fig 1d at 3:04, 3:32
e|-----------------------------|-------------------------------|
B|-----------------------------|-------------------------------|
G|-----------------------------|-------------------------------|
D|-9--8-6----------9--------8--|-9--6-8----------9--------8----|
A|-----------6--9--------7-----|-----------6--9--------7-------|
E|--------------------9--------|--------------------9----------|

at around 4:00 go back to fig 1a and 1b, and repeat the first three notes a few times

Gtr 2/piano:
                      (then at 1:16:)
e|----------------|---|-7--6-4-------11-------|
B|----------------|---|-----------------------|
G|-------8--------|x10|-----------------------|
D|---9------------|---|-----------------------|
A|----------------|---|-----------------------|
E|---7------------|---|-----------------------|


Gtr 3: (fade in around :30)
e|------------------------------------------|
B|-12---11--9------11-------------14--11----|
G|--------------------11--9--8--9-----------| played a bunch of times
D|------------------------------------------|
A|------------------------------------------|
E|------------------------------------------|


------------------------------------------------------------------------------------------
 Section 2
------------------------------------------------------------------------------------------

While guitars 1 and 3 keep repeating those riffs, this comes in

[4:32]

Gtr 2 + Bass:
e|---------------------------------------------------------------------|
B|---------------------------------------------------------------------|
G|-8-----8--9--8-----11-----8--9--8------------8--9--8-----------------| x4
D|----9-----------9------9-----------9------9-----------9--------------|
A|--------------------------------------11-----------------11~~~~------|
E|---------------------------------------------------------------------|
                              On the bass part, keep playing that last note
[5:21]

Right-Panned Gtr: (play this while the bass plays that G# a bunch)
e|----------------------------------|
B|----------------------------------|
G|-13--13--13--13--13--13--13--13---|
D|----------------------------------|
A|----------------------------------|
E|----------------------------------|

[5:35]

Left-Panned Gtr:
e|-----------------------------------------------------------------------------------------------------|
B|-----------------------------------------------------------------------------------------------------|
G|-----------------------------------------------------------------------------------------------------| x2
D|-9------8--------------9----h11-8--------------9--11--9--8---------------9--11--13--13---------------|
A|-------------9--11-------------------9--11--------------------9--11-----------------------9-11-------|
E|-----------------------------------------------------------------------------------------------------|

[5:50]

Right Gtr:
e|-------------------------------|
B|-------------------------------|
G|--------9-8--------------------| x6
D|-----9----------9--8-----8--6--|
A|-11----------9--------7--------|
E|-------------------------------|

[6:02]

Violin: (credit to user georgeolanda)
e|-------6-7-----------6---|-------6-7-11------6-7-11-|-9-7-6-------7-6---------|
B|-9---9-----9-7---7-9---7-|-9---9-------9---9--------|-------7---7-----9-------|
G|---8-----------8---------|---8-----------8----------|---------8---------8-----|
D|-------------------------|--------------------------|---------------------9-6-|
A|-------------------------|--------------------------|-------------------------|
E|-------------------------|--------------------------|-------------------------|

e|-------6-7-11-9-7-6-------|-7-6-------6-7-11-7--------|-9-7-6--------------------|-------|
B|-9---9--------------7---7-|-----9---9----------9---9--|-------7---7-9------------|-9~~---|
G|---8------------------8---|-------8--------------8----|---------8-----8-------8--|-------|
D|--------------------------|---------------------------|-----------------9-6-9----|-------|
A|--------------------------|---------------------------|--------------------------|-------|
E|--------------------------|---------------------------|--------------------------|-------|


------------------------------------------------------------------------------------------
 Section 3
------------------------------------------------------------------------------------------


[6:39]

Bass: (play this for a while)
G|-------------------|
D|-6-----------------|
A|----------7--------|
E|-------------------|

[7:14]

Left Gtr:
e|-------------------|
B|-------------------|
G|----5--------5-----| play this a bunch
D|-9-----9--6-----6--|
A|-------------------|
E|-------------------|

[7:31]

Violin:
e|-----------------------------------------------------------------------|
B|-8----9----------8----9---------8----9----------8----9-----------------|
G|---------9----8----------9--------------9----8----------9---8-6--------| x~8
D|----------------------------------------------------------------9--8-6-|
A|-----------------------------------------------------------------------|
E|-----------------------------------------------------------------------|

[7:58]

Right Gtr: (trem picked, play around with this)
e|---------------------------------|
B|-8-/-/-/-/-/-9-/-8-/-/-/-/-/-9-/-|
G|---------------------------------|
D|---------------------------------|
A|---------------------------------|
E|---------------------------------|

[8:08]

Left Gtr: (play around with these lines, some notes arent very loud)
e|-----------------|--|-----------------|
B|-----------------|--|-----------------|
G|-----------------|x7|-----------------|
D|-5----6----------|--|-5----6--9----8--|
A|---------7----6--|--|-----------------|
E|-----------------|--|-----------------|

[8:35]

(keep playing this, play around with it)
e|--------------------------------------------------|
B|--------------------------------------------------|
G|-----------------------------------------------8\-|
D|-5-5-5-5-6-6-------------5-5-5-5-6-6-9-9-9-8-8----|
A|-------------7-7-7-7-6-6--------------------------|
E|--------------------------------------------------|

[8:58]

Right Gtr:
e|-----------------------------------------------------------------------------------------------------|
B|-8-8-8-8-9-9-------------8-8-8-8-9-9-12-12-11-11-9-9-8-8-8-8-9-9-------------------------------------|
G|-------------9-9-9-9-8-8-----------------------------------------9-9-9-9-8-8-8-8-8-8-8-8-8-8-8-8-8-8-| x3
D|-----------------------------------------------------------------------------------------------------|
A|-----------------------------------------------------------------------------------------------------|
E|-----------------------------------------------------------------------------------------------------|

[9:25]

Left Gtr:
e|-------------------------------------------------|
B|-------------------------------------------------|
G|-------------------------------------------------| x8
D|-5-5-5-5-6-6-------------4-4-4-4-6-6-9-9-9-8-8-8-|
A|-------------7-7-7-7-6-6-------------------------|
E|-------------------------------------------------|

[9:39]

Right Gtr:
e|-------------------------------------------------------------------------------------------------------|
B|-------------------------------------------------------------------------------------------------------|
G|-------------------------------------------------------------------------------------------------------|
D|-6-6-6-6-6-6-6-6-6-6-6-6-9-9-9-9-9-9-8-8-8-8-8-8-6-6-6-6-6-6-6-6-6-6-6-6-9-9-9-9-9-9-11-11-11-11-11-11-|
A|-------------------------------------------------------------------------------------------------------|
E|-------------------------------------------------------------------------------------------------------|

[9:53]

Right Gtr:
e|-------------------------|--|-------------------------|
B|---------------------7-7-|--|-------------------------|
G|-8-8-8-8-6-6-9-9-9-9-----|x3|-------------------------| x2
D|-------------------------|--|-9-9-9-9-9-9-8-8-8-8-8-8-|
A|-------------------------|--|-------------------------|
E|-------------------------|--|-------------------------|

[10:20]

Right Gtr:
e|-----------------------------------------------------------------------------------------------------|
B|-----------------------------------------------------------------------------------------------------|
G|-----------------------------------------------------------------------------------------------------| x3
D|-6-6-6-6-6-6-6-6-6-6-6-6-9-9-9-9-9-9-8-8-8-8-8-8-6-6-6-6-6-6-6-6-6-6-6-6-9-9-9-9-9-9-11-11-11-11-8-8-|
A|-----------------------------------------------------------------------------------------------------|
E|-----------------------------------------------------------------------------------------------------|
 |                                                                                                     |
Left Gtr:                                                                                              |
e|-----------------------------------------------------------------------------------------------------|
B|-----------------------------------------------------------------------------------------------------|
G|-8-8-8-8-8-8-8-8-8-8-8-8-8-8-8-8-8-8-9-9-9-6-6-6-8-8-8-8-8-8-8-8-8-8-8-8-8-8-8-8-8-8--9--9-9-6-6-6-6-|
D|-----------------------------------------------------------------------------------------------------|
A|-----------------------------------------------------------------------------------------------------|
E|-----------------------------------------------------------------------------------------------------|

[10:59]

Right Gtr:
e|-------------------------------------------------------------------------------------------------|--|-----|
B|---------------------------------------------7-7-------------------------------------------------|--|-----|
G|-8-8-8-8-6-6-9-9-9-9-4-4-8-8-8-8-6-6-9-9-9-9-----8-8-8-8-6-6-9-9-9-9-4-4-4-4-4-4-4-4-3-3-3-3-3-3-|x2|-1~~-|
D|-------------------------------------------------------------------------------------------------|--|-----|
A|-------------------------------------------------------------------------------------------------|--|-----|
E|-------------------------------------------------------------------------------------------------|--|-----|
 |                                                                                                          |
Left Gtr:                                                                                                   |
e|-------------------------------------------------------------------------------------------------|--|-----|
B|-8-\-\-\-\-\-\-\-\-\-\-\-\-\-\-\-\-\-\-\-\-\-\-\-\-\-\-\-\-\-\-\-\-\-\-\-\-\-\-\-\-\-\-\-\-\-\-\-|--|-8~~-|
G|-------------------------------------------------------------------------------------------------|x2|-----|
D|-------------------------------------------------------------------------------------------------|--|-----|
A|-------------------------------------------------------------------------------------------------|--|-----|
E|-------------------------------------------------------------------------------------------------|--|-----|



------------------------------------------------------------------------------------------
 Section 3
------------------------------------------------------------------------------------------
Alright, almost there...the bassist here still sits on that G# here at the beginning

[11:39]

Right Gtr:
e|-----------------------------------------------|
B|-----------------------------------------------|
G|-8-6-------------------8-6-------6-8-----------|
D|-----9-8-6-----------------9-8-9---------------|
A|-----------9-6---------------------------------|
E|-----------------------------------------------|
 |                                               | x 3.5
Left Gtr:                                        |
e|-----------------------------------------------|
B|-9-----9-----9----9----9-----9-----9-----9-----|
G|-----------------------------------------------|
D|-----------------------------------------------|
A|-----------------------------------------------|
E|-----------------------------------------------|

[12:34]

Right Gtr:
e|-------------------------------------------------------------------------------------------------|
B|-------------------------------------------------------------------------------------------------|
G|-5-/-/-/-/-/-/-/-/-/-/-/-6-/-/-/-/-/-/-/-/-8-/-/-5-/-/-/-/-/-/-/-/-/-/-/-4-/-/-/-/-/-/-/-/-/-/-/-|
D|-------------------------------------------------------------------------------------------------|
A|-------------------------------------------------------------------------------------------------|
E|-------------------------------------------------------------------------------------------------|
 |                                                                                                 | x8
Left Gtr: (fades in slower, first half is same as right gtr first 2 times through)                 |
e|-------------------------------------------------------------------------------------------------|
B|-------------------------------------------------------------------------------------------------|
G|-5-/-/-/-/-/-/-/-/-/-/-/-9-/-/-/-/-/-/-/-/-11/-/-8-/-/-6-/-/-5-/-/-/-/-/-4-/-/-3-/-/-------------|
D|-------------------------------------------------------------------------------------6-/-/-4-/-/-|
A|-------------------------------------------------------------------------------------------------|
E|-------------------------------------------------------------------------------------------------|

[14:18]
Left Gtr variation:
e|-------------------------------------------------------------------------------------------------|
B|-------------------------------------7-9-/-7--9-7------------------------------------------------|
G|-5-/-/-/-/-/-/-/-/-/-/-/-9-/-/-/-/-/-------------9-8-/-/-6-/-8-5-/-/-/-/-/-4-/-/-3-/-/-----------| x2
D|-------------------------------------------------------------------------------------6-/-/-4-/-/-|
A|-------------------------------------------------------------------------------------------------|
E|-------------------------------------------------------------------------------------------------|

[15:10]

Right Gtr:
e|----------------------------------------------------------------------|
B|-13-/-/-/-/-/-14-/-/-16-/-/-13-/-/-/-/-/-/-12-/-/-11-/-/-9-/-/-16-/-/-|
G|----------------------------------------------------------------------| x2
D|----------------------------------------------------------------------|
A|----------------------------------------------------------------------|
E|----------------------------------------------------------------------|

Left Gtr:
e|-------------------------|
B|-------------------------|
G|-4-4-5-5-4-4-----5-5-----| x8
D|-------------6-6-----6-6-| 
A|-------------------------|
E|-------------------------|

e|-------------------------------------|--|--------------|
B|-------------------------------------|--|--------------|
G|-------------------------------------|x8|--------------|
D|-16-16-18-18-16-16-------18-18-------|--|--------------|
A|-------------------18-18-------18-18-|--|-18~~~~~~-----|
E|-------------------------------------|--|--------------|




************************************

| x   Dead note
| g   Grace note
| (n) Ghost note
| h   Hammer-on
| p   Pull-off
| r   Release
| >   Accented note
| t   Tapping
| b   Bend
| br  Bend release
| pb  Pre-bend
| pbr Pre-bend release
| /   Trem Pick
| \   Slide down
| ~   Vibrato
| s   Slap
| P   Pop
| PM  Palm mute
| TR  Trill


************************************

            
            
Suggest correction
Creating personal tab
Creating personal tab
You can edit any tab online and save it as your Personal.

You can edit, replace or remove any tab part or add personal notes – all changes will be seen only by you.

Personal tabs can be accessed anytime from any device, even offline.
Learn more »
Give kudos to tab author, rate the tab!
1 2 3 4 5
comments
print report bad tab
1 comment total.
0 reply
georgerolanda 28 Mar 09, 2017 12:49 PM

Ha! I was gonna say that you could put my viola tab in here in order to make a more complete tab, but lo' and behold you're a step ahead! fine work here. 5 stars

guest
You may want to rate the tab now too:
select rating
Wanna post a correction for this tab? Suggest correction