Oops, an error
Loading. Please wait.

East Hastings bass

version 1
version 1

Whole song

Interactive

322 views 6 this week
no commentswrite comment
1 2 3 4 5
1 last vote to show rating
add to favorites
×
Save as Personal and add changes to this tab that will be seen only by you. Learn more ›
×
You can save this tab as Personal to edit and correct it or add notes. All changes will be seen only by you. Learn more »
launch autoscroll
font size
0
reset
guitar tuner
edit
Autoscroll
slow
fast
+/-
esc
set tempo
stop
Author
-------------------------------------------
East Hastings - Godspeed You! Black Emperor
-------------------------------------------

Tabbed by: DaRito

Tuning: Standard (E A D G)

Feel free to fix incorrect notes, I tried my best to do it by ear.
I think it's in B flat major.

4/4 time signature works.

[4:50]
  1 + 2 + 3 + 4 +
G|---------------|
D|---------------| x20 or until [6:16]
A|6--------------|
E|---------------|

[6:16]
  1 + 2 + 3 + 4 +|1 + 2 + 3 + 4 +|1 + 2 + 3 + 4 +|1 + 2 + 3 + 4 +
G|----------------------------6---------------6------------------| x4
D|--------------8---------------------------------------------8--| On the last time, sustain the
A|----------8-8-------------8---8-----------8---8-----------8---8| 2nd to last note
E|6---6---6-------6---6---6-------6---6---6-------6---6---6------| 

No bass from [7:20] to [8:20].
Also, slightly faster tempo (I think), hardly noticeable

[8:20]
  1 + 2 + 3 + 4 +|1 + 2 + 3 + 4 +
G|-------------------------------| x8
D|-------------------------------| Very soft
A|-------------------------------|
E|6---------------2--------------|

[9:20] (about)
  1 + 2 + 3 + 4 +|1 + 2 + 3 + 4 +
G|-------------------------------| x6
D|-------------------------------| Louder
A|-------------------------------|
E|6---6---6---6---2---2---2---2--|

[10:02]
  1 + 2 + 3 + 4 +|1 + 2 + 3 + 4 +
G|-------------------------------| x4
D|-------------------------------| Louder, upfront
A|----------------------------4/6| 
E|6---------6/9---2--------------|

[10:30]
  1 + 2 + 3 + 4 +|1 + 2 + 3 + 4 +
G|-------------------------------| x16
D|-------------------------------| Tempo speeds up and intensity builds until the end
A|-------------------------------|
E|6-6-6-6-6-6-6-6-2-2-2-2-2-2-2-2|

[11:59]
  1 + 2 + 3 + 4 +
G|---------------| End note, sustain as long as possible
D|---------------| 
A|---------------|
E|6--------------|

| /  slide up
| \  slide down
| h  hammer-on
| p  pull-off
| ~  vibrato
| +  harmonic
| x  Mute note
===============================================================================

            
            
Suggest correction
Creating personal tab
Creating personal tab
You can edit any tab online and save it as your Personal.

You can edit, replace or remove any tab part or add personal notes – all changes will be seen only by you.

Personal tabs can be accessed anytime from any device, even offline.
Learn more »
Give kudos to tab author, rate the tab!
1 2 3 4 5
comments
print report bad tab
guest
You may want to rate the tab now too:
select rating
Wanna post a correction for this tab? Suggest correction