Oops, an error
Loading. Please wait.
8,151 views 42 this week
1 commentread comment
1 2 3 4 5
x 10
add to favorites
×
Save as Personal and add changes to this tab that will be seen only by you. Learn more ›
×
You can save this tab as Personal to edit and correct it or add notes. All changes will be seen only by you. Learn more »
launch autoscroll
font size
0
reset
how to read this tab
guitar tuner
edit
Autoscroll
slow
fast
+/-
esc
set tempo
stop
Difficulty
Author: Ben Wilkinson (benwilko_faster@yahoo.com)

This is the basic outline for the clean guitar part. There are other guitars being
played with screwdrivers, and one of the basses plays high melodies. Not every chord I've
tabbed is strummed. There are times when one isn't strummed, and times when chords are
strummed more times than I have tabbed. Notes of the chords are plucked between changes, you
can work out which ones :op Also, there is no strict tempo to begin with so basically it
is being played freely and slowly. The first 1 minute and 10 seconds is just a spoken
word sample. I haven't tabbed the whole twelve minute movement, just the fantastic and 
intricate chords that are played throughout the first five or six minutes.

KEY: p = pull off
X = mute (with left hand/finger)


PATTERN ONE:

[01:10]
Db -------------------------|
Bb -------------------------|
F  --12-------13-13p12------|
Eb --10-------10-10---------| x2
Bb --0--------0--0----------|
Eb -------------------------|

Db -------------------------------------------------|
Bb -------------------------------------------------|
F  --12-------12-12----------10-------10-10---------|
Eb --9--------9--9-----------9--------9--9----------|
Bb --0--------0--0-----------0--------0--0----------|
Eb -------------------------------------------------|

Db -------------------------|
Bb -------------------------|
F  --10-------12-12p10------|
Eb --8--------8--8----------| x2
Bb --0--------0--0----------|
Eb -------------------------|

Db -------------------------------------------------|
Bb --0--------0--0-----------0--------0--0----------|
F  --8--------8--8-----------7--------7--7----------|
Eb --7--------7--7-----------7--------7--7----------|
Bb --0--------0--0-----------0--------0--0----------|
Eb -------------------------------------------------|

Repeat PATTERN ONE again three more times [01:47 - 03:27] and then play..


PATTERN TWO:

[03:27] Play very gently. I have only tabbed when the notes change.
The open bottom Bb is quietly played more often..
Db -------------------------------------------------|
Bb -------------------------------------------------|
F  -------------------------------------------------|
Eb --10-------10----------10----------10-------10---|
Bb --0--------0-----------0-----------0--------0----|
Eb -------------------------------------------------|

Db -------------------------------------------------|
Bb -------------------------------------------------|
F  -------------------------------------------------|
Eb --9--------9-----------9-----------9--------9----|
Bb --0--------0-----------0-----------0--------0----|
Eb -------------------------------------------------|

Db -------------------------------------------------|
Bb -------------------------------------------------|
F  -------------------------------------------------|
Eb --8--------8-----------8-----------8--------8----|
Bb --0--------0-----------0-----------0--------0----|
Eb -------------------------------------------------|

Db -------------------------------------------------|
Bb -------------------------------------------------|
F  -------------------------------------------------|
Eb --7----------------------------------------------|
Bb --0----------------------------------------------|
Eb -------------------------------------------------|


PATTERN THREE:

[04:01]
Db -------------------------------------------------|
Bb --12----------------12----10---------------------|
F  --X-----------------X-----X----------------------|
Eb --10----------------10----10---------------------|
Bb --0-----------------0-----0----------------------|
Eb -------------------------------------------------|

Db -------------------------------------------------|
Bb --7-----------------------7--------5-------------|
F  --0-----------------------X--------X-------------|
Eb --5-----------------------4--------4-------------|
Bb --0-----------------------0--------0-------------|
Eb -------------------------------------------------|

Db -------------------------------------------------|
Bb --5-----------------------8-----------11---------|
F  --X-----------------------X-----------X----------|
Eb --3-----------------------6-----------9----------|
Bb --0-----------------------0-----------0----------|
Eb -------------------------------------------------|

Db -------------------------------------------------|
Bb --12---------------------------------------------|
F  --X----------------------------------------------|
Eb --10---------------------------------------------|
Bb --0----------------------------------------------|
Eb -------------------------------------------------|

Repeat PATTERN THREE again [04:37 - 05:10] and then play..


PATTERN THREE (variation):

[05:10]
Db -------------------------------------------------|
Bb --12----------------12----10---------------------|
F  --X-----------------X-----X----------------------|
Eb --10----------------10----10---------------------|
Bb --0-----------------0-----0----------------------|
Eb -------------------------------------------------|

Db -------------------------------------------------|
Bb --7-----------------------7--------5-------------|
F  --0-----------------------X--------X-------------|
Eb --5-----------------------4--------4-------------|
Bb --0-----------------------0--------0-------------|
Eb -------------------------------------------------|

Db -------------------------------------------------|
Bb --5-----------------------8-----7-----11---------|
F  --X-----------------------X-----X-----X----------|
Eb --3-----------------------6-----5-----9----------|
Bb --0-----------------------0-----0-----0----------|
Eb -------------------------------------------------|

Db -------------------------------------------------|
Bb --12---------------------------------------------|
F  --X----------------------------------------------|
Eb --10---------------------------------------------|
Bb --0----------------------------------------------|
Eb -------------------------------------------------|


Play PATTERN 2 twice[05:43 - 06:46]


PATTERN FOUR:

[6:46] All notes played on the Eb string are pretty much repeated
semi-quavers but there isn't much space to tab it all out..
Db -------------------------------------------------|
Bb --12----------------12----11---------------------|
F  --X-----------------X-----X----------------------|
Eb --10----------------10----10---------------------|
Bb --0-----------------0-----0----------------------|
Eb -------------------------------------------------|

Db -------------------------------------------------|
Bb --11----------------11----10---------------------|
F  --X-----------------X-----X----------------------|
Eb --9-----------------9-----9----------------------|
Bb --0-----------------0-----0----------------------|
Eb -------------------------------------------------|

Db -------------------------------------------------|
Bb --10----------------10----9----------------------|
F  --X-----------------X-----X----------------------|
Eb --8-----------------8-----8----------------------|
Bb --0-----------------0-----0----------------------|
Eb -------------------------------------------------|

Db -------------------------------------------------|
Bb -(7)-->->->->--repeated-semi-quavers-->->->->----|
F  -------------------------------------------------|
Eb --7--->->->->--repeated-semi-quavers-->->->->----|
Bb --0--->->->->--repeated-semi-quavers-->->->->----|
Eb -------------------------------------------------|

Repeat PATTERN FOUR again [07:17 - 07:48]

That's your lot! The overdrive kicks in now and the
seperate guitar parts are harder to pick out. You get
the idea though, eh?

            
            
Suggest correction
Creating personal tab
Creating personal tab
You can edit any tab online and save it as your Personal.

You can edit, replace or remove any tab part or add personal notes – all changes will be seen only by you.

Personal tabs can be accessed anytime from any device, even offline.
Learn more »
comments
print report bad tab
1 comment total.
0 reply
nima.bakhtiari 345 Jun 07, 2015 09:53 PM, edited on June 8 2015, 01:54 am

heya ^^ try these chords my friend. scale is "Am harmonic".

e|--------------------------------------------|
B|--5--6-5---5--6-5---5--3--3---3--5-3--1--0--|
G|--5--5-5---5--5-5---5--5--3---3--3-3--2--1--|
D|--7--7-7---6--6-6---5--5--3---3--3-3--3--2--|
A|--0-----------------3-----1---1-------------|
E|-----------5--------------------------1--0--|
1 x2 2 x2 3 4 5 5 x2 6 7
A A7 C C Bb Bbsus4 F E
sus2

basses are just like the fun for one guitar playing.

guest
Wanna post a correction for this tab? Suggest correction