Oops, an error
Loading. Please wait.

60 Revolutions Tab

version 2
version 2

Intro

Whole song

6,140 views 1 this week
2 commentsread comments
1 2 3 4 5
x 3
add to favorites
launch autoscroll
font size
0
reset
how to read this tab
guitar tuner
Autoscroll
slow
fast
+/-
esc
set tempo
stop
Help us to improve Ultimate-Guitar.com Take our survey!
×
Author
Difficulty
novice
Intro :
|------8---------7--------7---------0----------8---------7-------------|
|--10-----10--9-----9--9-----9--10-----10--10-----10--9----------------|
|----------------------------------------------------------------------|
|----------------------------------------------------------------------|
|----------------------------------------------------------------------|
|----------------------------------------------------------------------|

...and then the accordion comes in.

Alternatively, if you do not have an accordion, this will lead you into the song nicely...

Intro :
|------8---------7--------7---------0----------8---------7--------7--------|
|--10-----10--9-----9--9-----9--10-----10--10-----10--9-----9--9-----9--10-|
|--------------------------------------------------------------------------|
|--------------------------------------------------------------------------|
|--------------------------------------------------------------------------|
|--------------------------------------------------------------------------|
Suggest correction
Give kudos to tab author, rate the tab!
1 2 3 4 5
comments
print report bad tab
2 comments total.
0 reply
marcelaguiar 609 Oct 03, 2010 10:49 PM

Thanks for the intro. The accordion part can be played as such:

e|------------------8-9-8----|
B|-------6-7-8-9-10-------10-|
G|-9-8-9---------------------|
D|---------------------------|
A|---------------------------|
E|---------------------------|

+4 reply
marcelaguiar 609 Oct 03, 2010 10:50 PM

^Correction, i meant this:

e|------------------7-8-7----|
B|-------6-7-8-9-10-------10-|
G|-9-8-9---------------------|
D|---------------------------|
A|---------------------------|
E|---------------------------|

guest
You may want to rate the tab now too:
select rating
Wanna post a correction for this tab? Suggest correction