Oops, an error
Loading. Please wait.

Alcohol Tab

version 1
version 1

Whole song

45,510 views 84 this week
no commentswrite comment
1 2 3 4 5
excellent!
x 11
add to favorites
launch autoscroll
font size
0
reset
how to read this tab
guitar tuner
Autoscroll
slow
fast
+/-
esc
set tempo
stop
Help us to improve Ultimate-Guitar.com Take our survey!
×
Contributor
Difficulty
novice
Gogol Bordello

Alcohol

I noticed there were no tabs for this song so I decided to make this one. This is my
time making a guitar tab, I hope it's good. If you have any questions or comments message
at turnerdiontaye@yahoo.com. This is an acoustic version you can play by yourself, this 
completely accurate but i think its pretty close.


                              INTRO

e|---------------------------------------0-----------------------|
A|---------------------------0-0---------1-----------------------|
D|-------------------------1-1-1---------0---------1--1----------|
G|-------------------------2-0-0---------2---------2--0----------|
B|--------3------2------3--2-2-2---------0---------2--2----------|
E|---/5-------3------1-----0-0-0-0-3-4-5---3-3-1-1-0--0-0-3-4-5--|
                              PLAY TWICE

                              VERSE

e|-----7-7-7-7-5-5-5-5-4------------0-----------------------B----|
A|-----8-8-8-8-6-6-6-6-5--0---------1----------0-0----------R----|
D|--/9--------------------1---------0----------1-1----------E----|
G|------------------------0---------2----------0-0----------A----|
B|------------------------2---------0----------2-2----------K----|
E|------------------------0-0-4-5-----3-3-1-1--0-0-0-3-4-5-------|


e|--------------0-0-----------------0-0----------------0---------|
A|----0---------1-1--0--0-0---------1-1--0-0-0---------1---------|
D|----1---------0-0--0--1-1---------0-0--0-1-1---------0---------|
G|----0---------2-2--0--0-0---------2-2--0-0-0---------2---------|
B|----2---------0-0-----2-2---------0-0----2-2---------0---------|
E|--0-0-0-3-4-5------3--0-0-0-3-4-5------3-0-0-0-3-4-5---3-3-1-1-|


e|------------------0---------|
A|-----0-0----------1---------|
D|---1-1-1----------0---------|
G|---2-0-0----------2---------| PLAY 6 TIMES
B|---2-2-2----------0---------|
E|-0-0-0-0-0-3-4-5----3-3-1-1-|


                              pre-CHORUS

e|-1-1-1-1-1-1-1-3-3-3-3-3-3-3-------------|
A|-1-1-1-1-1-1-1-3-3-3-3-3-3-3-------------|
D|-2-2-2-2-2-2-2-4-4-4-4-4-4-4-1-1-1-1-----|
G|-3-3-3-3-3-3-3-5-5-5-5-5-5-5-2-2-2-2-----|
B|-3-3-3-3-3-3-3-5-5-5-5-5-5-5-2-2-2-2-----|
E|-1-1-1-1-1-1-1-3-3-3-3-3-3-3-0-0-0-0-----|

Palm mute alot on the pre-chorus

For the chorus just play the intro

There is another thing you can do for the intro here it is

e|-------------------------------------------|
A|--0-0--0-0--0-0--0-0--0--------------------|
D|--1-1--2-2--4-4--2-2--1--1-1-1-1-2-2-2-2--1|
G|--0-0--0-0--0-0--0-0--0--2-2-2-2-3-3-3-3--2|
B|--2-2--3-3--5-5--3-3--2--2-2-2-2-3-3-3-3--2|
E|--0-0--0-0--0-0--0-0--0--0-0-0-0-0-0-0-0--0|

Thanks for looking at my tab hope it helps you.

after the chorus the song just starts over.
comments
print report bad tab
I want to post or [tab]
guest
You may want to rate the tab now too:
select rating
Please do not post tabs as comments. Select "correction" instead!