Oops, an error
Loading. Please wait.

Alcohol Tab

version 2
version 2

Whole song

6,364 views 15 this week
2 commentsread comments
1 2 3 4 5
please rate
add to favorites
launch autoscroll
font size
0
reset
how to read this tab
guitar tuner
Tab Pro tools
  • play this tab
  • loop segment
  • change instrument
  • show fretboard
  • metronome
×
Best way to learn
"Alcohol"
Autoscroll
slow
fast
+/-
esc
set tempo
stop
Contributor
Difficulty
intermediate
There was only two on here for this; one was chords, which, if you know the song, 
work. at all. And the other got some stuff wrong. Sooooo... here's my version. This is my 
tab.

Intro

e|---5-----3-----1-----0--0-0--0-3-4-5-----3-3-1-1-0--0-0-0-0-3-5-|
A|------3-----2-----3-----2-2----------0-0------------2-2-2-------|
D|------------------------2-2----------2-2------------2-2-x-------|
G|------------------------1-1----------2-2------------1-1-1-------|
B|------------------------0-0----------1-1------------0-0-0-------|
E|------------------------0-0----------0-0------------0-0-0-------|
                                                      x
Play 2x

Verse Part

e|888877775-5-4-0-0-0-3-4-5-----3-3-1-1-0-0-0-0-0-3-5-----3-3-1-1-|
A|----------------2-2-------0-0-----------2-2-2-------0-0---------|
D|----------------2-2-------2-2-----------2-2-2-------2-2---------|
G|----------------1-1-------2-2-----------1-1-1-------2-2---------|
B|----------------0-0-------1-1-----------0-0-0-------1-1---------|
E|----------------0-0-------0-0-----------0-0-0-------0-0---------|
                                          x
you can mute the first strum on the pair of E chords, if you like

e|-0-0-0-0-0-3-4-5-----3-3-1-1-|
A|---2-2-2---------0-0---------|
D|---2-2-2---------2-2---------| Play 7x
G|---1-1-1---------2-2---------|
B|---0-0-0---------1-1---------|
E|---0-0-0---------0-0---------|
     x
in the above part [this is when Eugene sings] you switch between a pair of E's and the 
E's starting with a mute strum [as shown above]. Also, every now and then, you can pick 
your third finger and play E7 on the last chord before the 0-3-4-5 bit

Pre-chorus

"...And you know that I'll Pick up..."

e|-1-1-1-1-1-1-1-3-3-3-3-3-3-3-0-0-0-0-|
A|-3-3-3-3-3-3-3-5-5-5-5-5-5-5-2-2-2-2-|
D|-3-3-3-3-3-3-3-5-5-5-5-5-5-5-2-2-2-2-|
G|-2-2-2-2-2-2-2-4-4-4-4-4-4-4-1-1-1-1-|
B|-1-1-1-1-1-1-1-3-3-3-3-3-3-3-0-0-0-0-|
E|-1-1-1-1-1-1-1-3-3-3-3-3-3-3-0-0-0-0-|
             cresc...............ff
Just go to the beginning after this

Optional pre-intro from Axis Mundi
I might be wrong on this part

e|-0-0--0-0-0-0-0---------------0-0-0-0-0-0-0-0-0-|
A|-2-3--2-3-2-3-3---------------2-3-3-3-4-4-4-4-2-|
D|-2-3--2-3-2-3-3---------------2-3-3-3-4-4-4-4-2-|
G|-1-2--1-2-1-2-2---------------1-2-2-2-3-3-3-3-1-|
B|-0-0--0-0-0-0-0---------------0-0-0-0-0-0-0-0-0-|
e|-0-0--0-0-0-0-0-?????????????-0-0-0-0-0-0-0-0-0-|

in the question marks he does this really cool downward scale/riff thing, but I can't 
it out. Suggestions would be appreciated.

Questions, comments, death threats?
 email me at thabookwyrm@gmail.com
that's: thabookwyrm@gmail.com
comments
We did not receive enough feedback on this tab! Please rate:
print report bad tab
1 2 3 4 5
2 comments total.
0 reply
ilipiwke wrote on April 22 2011, 06:15 am

hahaha is there any reason why this tab is upside down?

0 reply
jinjadaninja wrote on May 8 2011, 10:35 pm

because I was temporarily retarded at the time.

I want to post or [tab]
guest
You may want to rate the tab now too:
select rating
Please do not post tabs as comments. Select "correction" instead!