Oops, an error
Loading. Please wait.

American Wedding Bass Tab

8,706 views 9 this week
no commentswrite comment
1 2 3 4 5
x 4
add to favorites
launch autoscroll
font size
0
reset
guitar tuner
Autoscroll
slow
fast
+/-
esc
set tempo
stop
Help us to improve Ultimate-Guitar.com Take our survey!
×
Author
Difficulty
intermediate
-------------------------------------------------------------------------------
			     American Wedding - Gogol Bordello
-------------------------------------------------------------------------------

Tabbed By : Hobo11
e-mail: Hobospartan@yahoo.com

Tuning: Standard (EADG)

-Intro-

G|------------------------------| 
D|------------------------------|
A|---------------33-----33--5---| x2
E|-2h3-5-5-5--55----5-55--5-----|

G|--------------------------------------------------------------|
D|-----------------------------------------5-7--77-44-----------|
A|-----5555-3333-2-0--5555-3333-2-0--0-3-6------------66-3h5p3--|
E|-3-3----------------------------------------------------------|

G|----------------------------------5---5---5---5--------|
D|-------------------------------------------------------|
A|----3--5---------------------2--3---3---3---3---5------|
E|-5--------5---5---5---5---5-------------------------5--|

-Chorus-

G|---------------------------------------------------------|
D|---------------------------------------------------------|
A|-------------1-3----1-3----3-5----3-5--------------------|
E|-5--0-3-5--3------3------5------5------0-3-5--0-3-5------|

G|------------------------------------------------------------|
D|------------------------------------------------------------|
A|-----------------1-3----1-3----3-5----3-5-------------------|
E|-0-3-5--0-3-5--3------3------5------5------0-3-5--0-3-5—0-3-|

-Verse-

G|---------------------5---5---5---5----7---7---7---7--------------------|
D|-----------------------------------------------------------------------|
A|-------------------3---3---3---3----5---5---5---5----------------------| x2
E|--55--55---55---55-----------------------------------55---55---55---55-|

-Chorus-

G|---------------------------------------------------------|
D|---------------------------------------------------------|
A|-------------1-3----1-3----3-5----3-5--------------------|
E|-5--0-3-5--3------3------5------5------0-3-5--0-3-5------|

G|------------------------------------------------------------|
D|------------------------------------------------------------|
A|-----------------1-3----1-3----3-5----3-5-------------------|
E|-0-3-5--0-3-5--3------3------5------5------0-3-5--0-3-5—0-3-|

-Pre-Breakdown-

G|---------------------5---5---5---5----7---7---7---7-----------------------|
D|--------------------------------------------------------------------------|
A|-------------------3---3---3---3----5---5---5---5-------------------------|
E|--55--55---55---55-----------------------------------55---55---55---55----|


G|----------------------------------------------------------|
D|-------------------------------------5-7--77-44-----------|
A|-5555-3333-2-0--5555-3333-2-0--0-3-6------------66-3h5p3--|
E|----------------------------------------------------------|

G|---------------------5---5---5---5----7---7---7---7--------------------|
D|-----------------------------------------------------------------------|
A|-------------------3---3---3---3----5---5---5---5----------------------|
E|--55--55---55---55-----------------------------------55---55---55---55-|

G|----------------------------------------------------------|
D|-------------------------------------5-7--77-44-----------|
A|-5555-3333-2-0--5555-3333-2-0--0-3-6------------66-3h5p3--|
E|----------------------------------------------------------|

-Breakdown-

G|------------------------------------------------|
D|--------0/12~-10h12/14-12\10--------------------|
A|-0~--3~----------------------12~\-----3~---5~---|
E|----------------------------------5~------------|

Pause For Humming

G|---------------5---5---5---5----7---7---7---7---|
D|------------------------------------------------|
A|-------------3---3---3---3----5---5---5---5-----|
E|-5--5--5--5-----------------------------------5-|

-Chorus-

G|---------------------------------------------------------|
D|---------------------------------------------------------|
A|-------------1-3----1-3----3-5----3-5--------------------|
E|-5--0-3-5--3------3------5------5------0-3-5--0-3-5------|

G|------------------------------------------------------------|
D|------------------------------------------------------------|
A|-----------------1-3----1-3----3-5----3-5-------------------|
E|-0-3-5--0-3-5--3------3------5------5------0-3-5--0-3-5—0-3-|

-Verse-

G|---------------------5---5---5---5----7---7---7---7-----------------------|
D|--------------------------------------------------------------------------|
A|-------------------3---3---3---3----5---5---5---5-------------------------|
E|--55--55---55---55-----------------------------------55---55---55---55----|


G|---------------------5---5---5---5----------|
D|--------------------------------------------|
A|-------------------3---3---3---3----5-------|
E|--55--55---55---55----------------------5---|

-Chorus-

G|---------------------------------------------------------|
D|---------------------------------------------------------|
A|-------------1-3----1-3----3-5----3-5--------------------|
E|-5--0-3-5--3------3------5------5------0-3-5--0-3-5------|

G|------------------------------------------------------------|
D|------------------------------------------------------------|
A|-----------------1-3----1-3----3-5----3-5-------------------|
E|-0-3-5--0-3-5--3------3------5------5------0-3-5--0-3-5—0-3-|

G|---------------------------------------------------------|
D|---------------------------------------------------------|
A|-------------1-3----1-3----3-5----3-5--------------------|
E|-5--0-3-5--3------3------5------5------0-3-5--0-3-5------|


G|------------------------------------------------------------|
D|------------------------------------------------------------|
A|-----------------1-3----1-3----3-5----3-5-------------------|
E|-0-3-5--0-3-5--3------3------5------5------0-3-5--0-3-5—0-3-|

-Outro-

G|----------------------------------------------------------|
D|-------------------------------------5-7--77-44-----------|
A|-5555-3333-2-0--5555-3333-2-0--0-3-6------------66-3h5p3~-|
E|----------------------------------------------------------|



You can substitute this bassline for verses to spice thins up a bit. 
I like to switch back and forth just for the heck of it. 

Honestly, it's kinda hard to tell what he's doing during the verse, so for all I
know, this could be right, haha.

G|-------------------------------------------------------|
D|-------------------------------------------------------|
A|---------------3--3--3--3----5--5--5--5----------------| x2
E|-05-05-05-05--3--3--3--3---5--5--5--5---05-05-05-05----|


Just watch out for timing, and this song should be pretty easy.

And I know the fives on the E can be replaced with open on the A, but i like the
tone of the E string one.
It sounds more like how he does it in the song.
Also it sets up for fingering for other parts.

~Hobo11
Suggest correction
comments
print report bad tab
guest
You may want to rate the tab now too:
select rating
Wanna post a correction for this tab? Suggest correction