Oops, an error
Loading. Please wait.

Harem In Tuscany Taranta Tab

6,434 views 1 this week
1 commentread comment
1 2 3 4 5
x 3
add to favorites
launch autoscroll
font size
0
reset
how to read this tab
guitar tuner
Autoscroll
slow
fast
+/-
esc
set tempo
stop
Help us to improve Ultimate-Guitar.com Take our survey!
×
Author
Tabber: Antikhristos

Am_____________E_____Am
Am_____________E_____Am

(violin tabbed for guitar)
____Am______________E________Am_______
E--0-5--5-0--0-5--5-0--0--------------0------------------|
B----------------------------3--3-3---3------------------|
G------------------------------------5-------------------|
D--------------------------------------------------------|
A--------------------------------------------------------|
E--------------------------------------------------------|
__Am__________________E_________Am____
E--5-5-5-3-3-3-1-1-1-0-0-0-----------------------------|
B------------------------------3-3-3-3-1-0-------------|
G--------------------------------------------2---------|
D------------------------------------------------------|
A------------------------------------------------------|
E------------------------------------------------------|

____Am____________________E________Am
After getting his political message come across
_____Am_____________E
uncle Sandro experienced absolutely devastating
____________________________
absolutely excruciating sense of loss
Dm____Am____E____________Am
Yo uncle Sandro, we don't really know
___Dm_________Am____E_______Am
but seems like politicians can be only wrong!
___Dm______Am__________E___________Am
and so to feel divine again and innocent and free
Dm__________Am______E
Sandro headed straight to harem
_______Am_________________
in Tuscany Ran Taranta Rantaranta
E_______Am
Harem in Tuscany
Am_________
Ran Taranta Super Taranta!
E_______Am
Harem in Tuscany!


____Am______________E________Am_______
E--0-5--5-0--0-5--5-0--0--------------0------------------|
B----------------------------3--3-3---3------------------|
G------------------------------------5-------------------|
D--------------------------------------------------------|
A--------------------------------------------------------|
E--------------------------------------------------------|
__Am__________________E_________Am____
E--5-5-5-3-3-3-1-1-1-0-0-0-----------------------------|
B------------------------------3-3-3-3-1-0-------------|
G--------------------------------------------2---------|
D------------------------------------------------------|
A------------------------------------------------------|
E------------------------------------------------------|

____Bm______C#m
Aiiie Haiiiiiii Aiiie Haiiiiii

(note, at this point, everything shifts up 4 frets. If you got a capo, put it on quickly 
you can, or you'll just have to live with the bar chords, which suck on steel strings)


C#m__________________________G#________C#m
Sandro came back from world travel stupider than left
C#m____________
even good guys fight each other
G#___________C#m
even bad songs being theft
C#m
we walked stupid he talked stupid
___G#__________C#m
he could not comprehend

and therefore everyone called him a stupid man...


F#m____C#m__________G#_________C#m
Everybody wonders about meaning of the life
F#m______C#m__________G#______C#m
I set out to conquer fucker-- Polutchilsja Kalf!
F#m________C#m_________G#_______C#m
and so to feel divine again and innocent and free
F#m_________C#m_____G#_________C#m
Sandro headed straight to Harem in Tuscany!

C#m_______________
Ranta Ranta Ran Taranta
G#__________C#m
Harem in Tuscany
C#m__________________
Ran Taranta Supertaranta!
G#__________C#m
Harem in Tuscany

C#m________________G#________C#m
E--9--9---------9--9-----------------------------------|
B--------9--9---------9--9-7--7-7----7-9----9----------|
G------------------------------------9-----------------|
D------------------------------------------------------|
A------------------------------------------------------|
E------------------------------------------------------|

_C#m_________________G#________C#m
E-9-9-9-7-7-7-5-5-5-4-4-4------------------------------|
B------------------------------7-7-7-7-5-4-------------|
G--------------------------------------------6---------|
D------------------------------------------------------|
A------------------------------------------------------|
E------------------------------------------------------|

E---------------------------------------------------------------------------|
B------4---5-5-5-5---4------------------4---7-7-7-7--5--4-------------------|
G--6----------------------6--5-5-5-5-5-----------------------6-6-6-6--------|
D---------------------------------------------------------------------------|
A---------------------------------------------------------------------------|
E---------------------------------------------------------------------------|

E---------------------------------------------------------------------------|
B------4---5-5-5-5---4------------------4---7-7-7-7--5--4-------------------|
G--6----------------------6--5-5-5-5-5-----------------------6-6-6-6--------|
D---------------------------------------------------------------------------|
A---------------------------------------------------------------------------|
E---------------------------------------------------------------------------|

________C#m_________G#__________G#_________C#m
E---------------------------------------------------------------------------|
B------4---5-5-5-5---4------------------4---7-7-7-7--5--4-------------------|
G--6----------------------6--5-5-5-5-5-----------------------6-6-6-6--------|
D---------------------------------------------------------------------------|
A---------------------------------------------------------------------------|
E---------------------------------------------------------------------------|

________C#m_________G#__________G#_________C#m
E---------------------------------------------------------------------------|
B------4---5-5-5-5---4------------------4---7-7-7-7--5--4-------------------|
G--6----------------------6--5-5-5-5-5-----------------------6-6-6-6--------|
D---------------------------------------------------------------------------|
A---------------------------------------------------------------------------|
E---------------------------------------------------------------------------|

____C#m__________G#
Only ones in the good spirit
_____G#_________C#m
full of life and good advice
________C#m__________G#
who's not jealous and not bitter
_______G#_________C#m
come to me let's talk about
_______C#m______G#
how to live a decent life
_________G#_________C#m
when you are bigger than life
________C#m__________G#
where the hell the top or bottom
______G#_____________C#m
in this good god damn ying yang?
____C#m________G#
everybody wonders nu-li
_____G#_________C#m
about meaning of the life
____C#m_________G#
I set out to conquer fucker
_____G#_______C#m
and a Polutchilsja Kalf!
__C#m________G#
to harem of innocence
_____G#______C#m
Devla le-la let me in!
______C#m__________G#
For the boots of decent life
_______G#__________C#m
they are just too small for me!
____C#m__________G#
Ah ti tjotenka patchkunja
_____G#_________C#m
ai ti djadka moidodir
____C#m__________G#
Zgeka, kak tam progibalovo
__G#___C#m
ili normaldy!?


____C#m__________G#
_____G#_________C#m
____C#m__________G#
_____G#_________C#m

Bm_____________Am

(note: it all shifts back down now)


Am_______________________E_________Am_
Sandro came out of the harem stupider than left.
Am__________
even good girls fight eachother,
E______________Am
knickers are being theft!
___Am_____________
He walks stuipd and talks stuipd
E____________Am___
Could no comprehend

E-8-10-8--7-8-7--5-7-5--3-5-3---1--0----------------------|
B------------------------------------------3--1--0--------|
G---------------------------------------------------2-----|
D---------------------------------------------------------|
A---------------------------------------------------------|
E---------------------------------------------------------|

Dm__________Am__________E_________Am
and so to feel divine again and innocent and free
Dm____________Am
got ready for punk rock siesta in
E___________Am
Harem in Carpaty!
Am
Ran taranta ran taranta
E________Am
harem in Carpaty
Am
Ran Taranta Super Taranta!
E________Am
Harem in Carpaty!


____Am______________E________Am_______
RIOT RIOT RIOT RIOT ___RIOT RIOT ROHHHHHH
E--0-5--5-0--0-5--5-0--0--------------0------------------|
B----------------------------3--3-3---3------------------|
G------------------------------------5-------------------|
D--------------------------------------------------------|
A--------------------------------------------------------|
E--------------------------------------------------------|

__Am__________________E_________Am____
E--5-5-5-3-3-3-1-1-1-0-0-0-----------------------------|
B------------------------------3-3-3-3-1-0-------------|
G--------------------------------------------2---------|
D------------------------------------------------------|
A------------------------------------------------------|
E------------------------------------------------------|
Suggest correction
Give kudos to tab author, rate the tab!
1 2 3 4 5
comments
print report bad tab
1 comment total.
0 reply
Arthemesic 72 May 12, 2016 01:47 PM

The violin melodies seem off, but the chords sound right.

guest
You may want to rate the tab now too:
select rating
Wanna post a correction for this tab? Suggest correction