Oops, an error
Loading. Please wait.

Immigraniada Tab

version 1
version 1

Whole song

Interactive

7,272 views 18 this week
1 commentread comment
1 2 3 4 5
excellent!
x 3
add to favorites
launch autoscroll
font size
0
reset
how to read this tab
guitar tuner
Autoscroll
slow
fast
+/-
esc
set tempo
stop
Help us to improve Ultimate-Guitar.com Take our survey!
×
Author
Difficulty
novice
-------------------------------------------------------------------------------
                             IMMIGRANIADA - Gogol Bordello
-------------------------------------------------------------------------------
Tabbed by: LoudLove5150
Email: loudlove5150@gmail.com

Tuning: E Standard

Listen to the track to get the exact timing.

INTRO - Bass for 3 measures, guitar/bass on last measure
G|--------------------------------------------------|
D|--------------------------------------------------| x3
A|-----------3-3-3-3-3--3------------5-5-5-5-5-5--5-|
E|-0-0-0--0----------------3-3-3--3-----------------|

G|------------------------------|
D|------------------------------| <- Last measure of the INTRO
A|-----------3-3-3-3-3--3-------|
E|-0-0-0--0----------------3--2-|

e|------------------------------|
B|------------------------------|
G|------------------------------| <- Timing coincides with the last measure
D|-------------------------5--4-|    of the INTRO
A|-------------------------5--4-|
E|-------------------------3--2-|

CHORUS - It helps to alternate between up and down strokes here
e|-----------------------------------------------------------------|
B|-----------------------------------------------------------------|
G|-9-9-9-9-9-9-9-9-5-5-5-5-5-5-5-5-----------------7-7-7-7-7-7-7-7-| x4
D|-9-9-9-9-9-9-9-9-5-5-5-5-5-5-5-5-5-5-5-5-5-5-5-5-7-7-7-7-7-7-7-7-|
A|-7-7-7-7-7-7-7-7-3-3-3-3-3-3-3-3-5-5-5-5-5-5-5-5-5-5-5-5-5-5-5-5-|
E|---------------------------------3-3-3-3-3-3-3-3-----------------|

INTERLUDE
e|------------------------------------------------------------|
B|------------------------------------------------------------|
G|------------------------------------------------------------|
D|------------------------------------------0h2p0-----0-------|
A|--------0h2p0-----0--0-2h3/5\3-2p0h2--2h3-------3p2----5--3-|
E|-0--2h3-------3p2-------------------------------------------|

VERSE is all bass, except for the last measure,
where the guitar comes in on the last two notes
of the last measure like it did in the intro:

e|--------|
B|--------|
G|-7------|
D|-7--7---|
A|-5--7---|
E|----5---|

CHORUS x4
VERSE
CHORUS x4

INTERLUDE 2
e|--------------------------|
B|--------------------------|
G|---------------------7--5-|
D|---------------------7--5-|
A|--------0h2p0-----0--5--3-|
E|-0--2h3-------3p2---------|

BRIDGE
e|-----------------------------------------------------------------|
B|-----------------------------------------------------------------|
G|-9-9-9-9-9-9-9-9-----------------7-7-7-7-7-7-7-7-----------------| x3
D|-9-9-9-9-9-9-9-9-5-5-5-5-5-5-5-5-7-7-7-7-7-7-7-7-7-7-7-7-7-7-7-7-|
A|-7-7-7-7-7-7-7-7-5-5-5-5-5-5-5-5-5-5-5-5-5-5-5-5-7-7-7-7-7-7-7-7-|
E|-----------------3-3-3-3-3-3-3-3-----------------5-5-5-5-5-5-5-5-|

e|---------------------------------------|
B|---------------------------------------|
G|-9-9-9-9-9-9-9-9------------------7----| <- Last measure of the BRIDGE
D|-9-9-9-9-9-9-9-9-5-5-5-5-5-5-5-5--7--7-|
A|-7-7-7-7-7-7-7-7-5-5-5-5-5-5-5-5--5--7-|
E|-----------------3-3-3-3-3-3-3-3-----5-|

INTERLUDE
VERSE for one measure then:

e|----------------|
B|----------------|
G|---------7------| x1
D|-2--5-5--7--7-7-|
A|-2--5-5--5--7-7-|
E|-0--3-3-----5-5-|

e|------------|
B|------------|
G|-------7----| x1
D|-2--5--7--7-|
A|-2--5--5--7-|
E|-0--3-----5-|

e|---|
B|---|
G|---| x1; Let chord ring the full measure
D|-2-|
A|-2-|
E|-0-|

e|-----------|
B|-----------|
G|-----------| x1
D|-2--5--4-3-|
A|-2--5--4-3-|
E|-0--3--2-1-|

CHORUS x6

e|---|
B|---|
G|---| <- Let chord ring until the song fades out.
D|-2-|
A|-2-|
E|-0-|


************************************

| /   slide up
| \   slide down
| h   hammer-on
| p   pull-off

************************************
Suggest correction
Give kudos to tab author, rate the tab!
1 2 3 4 5
comments
print report bad tab
1 comment total.
0 reply
savianoperry 1,129 wrote on April 7 2012, 12:04 am

the verse has an acoustic guitar not just bass

guest
You may want to rate the tab now too:
select rating
Wanna post a correction for this tab? Suggest correction