Oops, an error
Loading. Please wait.

Nomadic Chronicle Tab

3,153 views 3 this week
1 commentread comment
1 2 3 4 5
2 more votes to show rating
add to favorites
launch autoscroll
font size
0
reset
how to read this tab
guitar tuner
Autoscroll
slow
fast
+/-
esc
set tempo
stop
Help us to improve Ultimate-Guitar.com Take our survey!
×
Author
Difficulty
novice
Nomandic chronicle - Gogol Bordello

C G am F em


------3-1-0----0h11-1h0------------------------------------------------|
-1------1-0--1---------------------------------------------------------|
-----------------------------------------------------------------------|
-----------------------------------------------------------------------|
-----------------------------------------------------------------------|
-----------------------------------------------------------------------|

C G am F em
C G am F em
C G am F em

00:46                             00:54

C    G            F  Em          C G      F em
-0----3-1-0--0----0h1-0------------3-1-0--------------------------------|
---1-----------1--------3-1--------3-1-0--------------------------------|
------------------------------------------------------------------------|
---------------------------------------------0--------------------------|
-------------------------------------------3----------------------------|
------------------------------------------------------------------------|


Verse:
C G am F em
C G am F em
C G am F em
C G am F em
Suggest correction
Give kudos to tab author, rate the tab!
1 2 3 4 5
comments
print report bad tab
1 comment total.
0 reply
Tom Petty 10 Aug 08, 2008 03:42 PM

Good tab. I only have one small correction to offer.
The first little riff should go:
E |-------3-1-0---------0h1--0---------------------|
B |---1-----1-0-----------------3------------------|
G |----------------2-------------------------------|

guest
You may want to rate the tab now too:
select rating
Wanna post a correction for this tab? Suggest correction