Oops, an error
Loading. Please wait.

Blow Me Away You Niverse Tab

version 1
version 1

Whole song

Interactive

2,890 views 3 this week
no commentswrite comment
1 2 3 4 5
please rate
add to favorites
launch autoscroll
font size
0
reset
how to read this tab
guitar tuner
Autoscroll
slow
fast
+/-
esc
set tempo
stop
Help us to improve Ultimate-Guitar.com Take our survey!
×
Author/Artist: Gojira
Title: Blow me Away you(niverse
Album: Terra Incoqnita
Transcribed by: evasion (elvijsostrovskis@tvnet.lv)
DGCFAD

pm - palm mute
bd - bend

-|-----------------|
-|-----------------|
-|-----------------|
-|-----------------|
-|-----------------|
-|-0-0-0-0-0-0-0-0-|
pm - - - - - - - -

-|-----------------|
-|-----------------|
-|-----------------|
-|-----------------|
-|-----------------|
-|-5-5-5-5-5-5-5-5-|
bd ^ ^ ^ ^ ^ ^ ^ ^

-|-----------------|
-|-----------------|
-|-----------------|
-|-----------------|
-|-----------------|
-|-5-5-5-5-7-6-6666|
bd ^ ^ ^ ^ ^ ^

-|-----------------|
-|-----------------|
-|-----------------|
-|-----------------|
-|-----------------|
-|-5-5-5-5-7-6-x---|
bd ^ ^ ^ ^ ^ ^

-|-----------------|-----------------|
-|-----------------|-----------------|
-|-----------------|-----------------|
-|-----------------|-----------------|
-|-----------------|-8888888888888888|
-|-0-0-0-0-0-0-0-0-|-----------------|
pm - - - - - - - -


-|-----------------|-----------------|
-|-----------------|-----------------|
-|-----------------|-----------------|
-|-----------------|-----------------|
-|-----------------|-7777777777777777|
-|-2-1-0-1-0--2-1-0|-----------------|
pm - - - - -  - - -

-|-----------------|-----------------|
-|-----------------|-----------------|
-|-----------------|-----------------|
-|-----------------|-----------------|
-|-----------------|-8888888888888888|
-|-2-1-0-1-0--2-1-0|-----------------|
pm - - - - -  - - -

-|-----------------|
-|-----------------|
-|-----------------|
-|-----55554444----|
-|-2222------------|
-|-----------------|

-|-----------------|-----------------|
-|-----------------|-----------------|
-|----------------6|----6---6---6----|
-|-----55554444333-|-333-333-333-----|
-|-2222------------|-----------------|
-|-----------------|-----------------|
bd                ^     ^   ^   ^

-|-----------------|
-|-----------------|
-|-----------------|
-|-----------------|
-|-2-2-2-2-3/------|
-|-0-0-0-0-1/------|
pm - - - -

-|-----------------|
-|-----------------|
-|-----------------|
-|-----------------|
-|-4/3-4/3-4/3/----|
-|-2/1-2/1-2/1/----|

-|-----------------|
-|-----------------|
-|-----------------|
-|-----------------|
-|-4/3-4/3-4/6-----|
-|-2/1-2/1-2/4-----|

-|-----------------|-----------------|-----------------|
-|-----------------|-----------------|-----------------|
-|-----------------|-----------------|-----------------|
-|-----------------|-----------------|-----------------|
-|-2-2-2-2---------|-----------------|-8888888888888888|
-|-0-0-0-0---------|-2-1-0-1-0--2-1-0|-----------------|
pm - - - -           - - - - -  - - -

Tabs are not 100% correct but sounds good!
You can steal this tabs and correct them!
Remember - Gojira rock!
Have good day, bye! :)
Suggest correction
Give kudos to tab author, rate the tab!
1 2 3 4 5
comments
print report bad tab
guest
You may want to rate the tab now too:
select rating
Wanna post a correction for this tab? Suggest correction