Oops, an error
Loading. Please wait.

Born In Winter Tab

version 1
version 1

Whole song

Interactive

12,800 views 72 this week
no commentswrite comment
1 2 3 4 5
x 9
add to favorites
launch autoscroll
font size
0
reset
how to read this tab
guitar tuner
Autoscroll
slow
fast
+/-
esc
set tempo
stop
Help us to improve Ultimate-Guitar.com Take our survey!
×
Author
Difficulty
Tuning
advanced
C G C F A D
Band: Gojira
Album: L'enfant Sauvage
Song: Born in Winter

Tabbed by: coVal


Tuning: Drop C  (CGCFAD)

Let all tapped notes ring, don't mute them. Chorus and break is played with
heavy distortion, the rest is on clean or with a little overdrive.


[Intro] 
(0:00)

   T   T   T   T   T   T   T   T   T   T   T   T
D|--------------------------------------------------|
A|--------------------------------------------------|
F|--------------------------------------------------|
C|-7p0-----7p0-----7p3-----7p3-----7p2-----7p2------|
G|--------------------------------------------------|
C|-----7p0-----7p0-----7p3-----7p3-----7p2-----7p2--|


    T   T   T   T   T   T   T   T        T   T   T   T   T   T   T   T    
D|----------------------------------|||----------------------------------||
A|----------------------------------|||----------------------------------||
F|----------------------------------|||----------------------------------||
C|-7p5-----7p5-----7p5-----7p5------|||-7p3-----7p3-----7p3-----7p3------||
G|----------------------------------|||----------------------------------||
C|-----7p5-----7p5-----7p5-----7p5--|||-----7p3-----7p3-----7p3-----7p3--||(x2)


   T   T   T   T   T   T   T   T   T   T   T   T      
D|--------------------------------------------------|
A|--------------------------------------------------|
F|--------------------------------------------------|
C|-7p0-----7p0-----7p3-----7p3-----7p2-----7p2------|
G|--------------------------------------------------|
C|-----7p0-----7p0-----7p3-----7p3-----7p2-----7p2--|


   T   T   T   T   T   T   T   T   T   T   T   T
D|--------------------------------------------------|
A|--------------------------------------------------|
F|--------------------------------------------------|
C|-7p5-----7p5-----7p5-----7p5-----7p5-----7p5------|
G|--------------------------------------------------|
C|-----7p5-----7p5-----7p5-----7p5-----7p5-----7p5--|


   T   T   T   T   T   T   T   T
D|----------------------------------|
A|----------------------------------|
F|----------------------------------|
C|-7p3-----7p3-----7p3-----7p3------|
G|----------------------------------|
C|-----7p3-----7p3-----7p3-----7p3--|


    T   T   T   T   T   T   T   T      T   T   T   T   T   T   T   T    
D|----------------------------------|----------------------------------||
A|----------------------------------|----------------------------------||
F|----------------------------------|----------------------------------||
C|10p3----10p3-----9p3----12p3------|10p3-----9p3----10p3-----7p3------||
G|----------------------------------|----------------------------------||
C|----10p3----10p3-----9p3----12p3--|----10p3-----9p3----10p3-----7p3--||(x2)


[Verse]
(0:25)

   T   T   T   T   T   T   T   T   T   T   T   T      
D|--------------------------------------------------|
A|--------------------------------------------------|
F|--------------------------------------------------|
C|-7p0-----7p0-----7p3-----7p3-----7p2-----7p2------|
G|--------------------------------------------------|
C|-----7p0-----7p0-----7p3-----7p3-----7p2-----7p2--|(x2)


   T   T   T   T   T   T   T   T   T   T   T   T
D|--------------------------------------------------|
A|--------------------------------------------------|
F|--------------------------------------------------|
C|-7p5-----7p5-----7p5-----7p5-----7p5-----7p5------|
G|--------------------------------------------------|
C|-----7p5-----7p5-----7p5-----7p5-----7p5-----7p5--|


   T   T   T   T   T   T   T   T      T   T   T   T   T   T   T   T    
D|----------------------------------|----------------------------------|
A|----------------------------------|----------------------------------|
F|----------------------------------|----------------------------------|
C|-7p3-----7p3-----7p3-----7p3------|-7p3-----7p3-----7p3-----7p3------|
G|----------------------------------|----------------------------------|
C|-----7p3-----7p3-----7p3-----7p3--|-----7p3-----7p3-----7p3-----7p3--|


   T   T   T   T   T   T   T   T   T   T   T   T      
D|--------------------------------------------------|
A|--------------------------------------------------|
F|--------------------------------------------------|
C|-7p0-----7p0-----7p3-----7p3-----7p2-----7p2------|
G|--------------------------------------------------|
C|-----7p0-----7p0-----7p3-----7p3-----7p2-----7p2--|


   T   T   T   T   T   T   T   T   T   T   T   T
D|--------------------------------------------------|
A|--------------------------------------------------|
F|--------------------------------------------------|
C|-7p5-----7p5-----7p5-----7p5-----7p5-----7p5------|
G|--------------------------------------------------|
C|-----7p5-----7p5-----7p5-----7p5-----7p5-----7p5--|


   T   T   T   T   T   T   T   T
D|----------------------------------|
A|----------------------------------|
F|----------------------------------|
C|-7p3-----7p3-----7p3-----7p3------|
G|----------------------------------|
C|-----7p3-----7p3-----7p3-----7p3--|


    T   T   T   T   T   T   T   T      T   T   T   T   T   T   T   T    
D|----------------------------------|----------------------------------||
A|----------------------------------|----------------------------------||
F|----------------------------------|----------------------------------||
C|10p3----10p3-----9p3----12p3------|10p3-----9p3----10p3-----7p3------||
G|----------------------------------|----------------------------------||
C|----10p3----10p3-----9p3----12p3--|----10p3-----9p3----10p3-----7p3--||(x2)


[Change]
(1:14)

    T   T   T   T   T   T   T   T    x2  T   T   T   T   T   T   T   T    
D|----------------------------------|||----------------------------------||
A|----------------------------------|||----------------------------------||
F|----------------------------------|||----------------------------------||
C|-9p5-----9p5-----9p5-----9p5------|||10p7----10p7----10p7----10p7------||
G|----------------------------------|||----------------------------------||
C|-----9p5-----9p5-----9p5-----9p5--|||----10p7----10p7----10p7----10p7--||(x2)


    T   T   T   T   T   T   T   T    
D|----------------------------------||
A|----------------------------------||
F|----------------------------------||
C|-7p3-----7p3-----7p3-----7p3------||
G|----------------------------------||
C|-----7p3-----7p3-----7p3-----7p3--||(x2)


   T   T   T   T   T   T   T   T      T   T   T   T   T   T   T   T    
D|----------------------------------|----------------------------------|
A|----------------------------------|----------------------------------|
F|----------------------------------|----------------------------------|
C|-6p2-----6p2-----6p2-----6p2------|-6p2-----6p2-----7p2-----7p2------|
G|----------------------------------|----------------------------------|
C|-----6p2-----6p2-----6p2-----6p2--|-----6p2-----6p2-----7p2-----7p2--|


[Pre-Chorus]
(1:29)

    T   T   T   T   T   T   T   T      T   T   T   T   T   T   T   T     
D|----------------------------------|----------------------------------||
A|----------------------------------|----------------------------------||
F|----------------------------------|----------------------------------||
C|-7p0-----7p0-----7p3-----7p3------|-6p2-----6p2-----6p2-----6p2------||
G|----------------------------------|----------------------------------||
C|-----7p0-----7p0-----7p3-----7p3--|-----6p2-----6p2-----6p2-----6p2--||(x4)


    T   T   T   T   T   T   T   T    
D|----------------------------------||
A|----------------------------------||
F|----------------------------------||
C|-6p2-----6p2-----6p2-----6p2------||
G|----------------------------------||
C|-----6p2-----6p2-----6p2-----6p2--||(x3)


[Chorus]
(1:49) 

   T   T   T   T   T   T   T   T      T   T   T   T   T   T   T   T    
D|----------------------------------|----------------------------------|
A|----------------------------------|----------------------------------|
F|----------------------------------|----------------------------------|
C|12p0----12p0----12p0----12p0------|12p0----12p0----12p0----12p0------|
G|----------------------------------|----------------------------------|
C|----12p0----12p0----12p0----12p0--|----12p0----12p0----12p0----12p0--|(x2)


   T   T   T   T   T   T   T   T      T   T   T   T   T   T   T   T    
D|----------------------------------|----------------------------------|
A|----------------------------------|----------------------------------|
F|----------------------------------|----------------------------------|
C|17p1----17p1----17p1----17p1----/-|17p10---17p10---17p10---17p8------|
G|----------------------------------|----------------------------------|
C|----17p1----17p1----17p1----17p1/-|----17p10---17p10---17p8----17p8--|


   T   T   T   T   T   T   T   T      T   T   T   T   T   T   T   T    
D|----------------------------------|----------------------------------|
A|----------------------------------|----------------------------------|
F|----------------------------------|----------------------------------|
C|12p0----12p0----12p0----12p0------|12p0----12p0----12p0----12p0------|
G|----------------------------------|----------------------------------|
C|----12p0----12p0----12p0----12p0--|----12p0----12p0----12p0----12p0--|


   T   T   T   T   T   T   T   T      T   T   T   T   T   T   T   T    
D|----------------------------------|----------------------------------|
A|----------------------------------|----------------------------------|
F|----------------------------------|----------------------------------|
C|17p1----17p1----17p1----17p1----/-|17p13---17p13---17p13---17p7------|
G|----------------------------------|----------------------------------|
C|----17p1----17p1----17p1----17p1/-|----17p13---17p13---17p7----17p7--|


[Break]
(2:19)

D|----------------------------------|
A|----------------------------------|
F|-------------------7--------------|
C|----------------------------------|
G|-------------------5--------------|
C|-0-0-0-0-0-0-0-0-0----------------|
  . . . . . . . . .                 

   --3-- --3-- --3-- --3-- --3-- --3-- --3-- --3--  
D|-------------------------------------------------||
A|-------------------------------------------------||
F|-------------------------------------------------||
C|-------------------------------------------------||
G|-------------------------------------------------||
C|-x-x-x-x-x-x-x-x-x-x-x-x-x-x-x-x-x-x-x-x-x-x-x-x-||(x3)
 natural harmonics from 1st to 5th fret


D|--------------------------|----------------------------------|
A|--------------------------|----------------------------------|
F|-------------------7------|-------------------7--------------|
C|--------------------------|----------------------------------|
G|-------------------5------|-------------------5--------------|
C|-0-0-0-0-0-0-0-0-0--------|-0-0-0-0-0-0-0-0-0----------------|
  . . . . . . . . .          . . . . . . . . .

  --3-- --3-- --3-- --3-- --3-- --3-- --3-- --3-- 
D|-------------------------------------------------|
A|-------------------------------------------------|
F|-------------------------------------------------|
C|-------------------------------------------------|
G|-------------------------------------------------|
C|-x-x-x-x-x-x-x-x-x-x-x-x-x-x-x-x-x-x-x-x-x-x-x-x-|
 natural harmonics from 1st to 5th fret


[Chorus]
(2:36)

Play chorus 2 times


[Outro]
(3:06)

    T   T   T   T   T   T   T   T    Play till the end
D|----------------------------------||
A|----------------------------------||
F|----------------------------------||
C|-6p2-----6p2-----6p2-----6p2------||
G|----------------------------------||
C|-----6p2-----6p2-----6p2-----6p2--||




************************************

| T tapping
| p pull-off
| / slide up
| . palm muted

************************************
Suggest correction
comments
print report bad tab
guest
You may want to rate the tab now too:
select rating
Wanna post a correction for this tab? Suggest correction