Oops, an error
Loading. Please wait.

Dawn Bass Tab

version 1
version 1

Whole song

Interactive

2,840 views 12 this week
no commentswrite comment
1 2 3 4 5
excellent!
x 6
add to favorites
launch autoscroll
font size
0
reset
guitar tuner
Tab Pro tools
  • play this tab
  • loop segment
  • change instrument
  • show fretboard
  • metronome
×
Best way to learn
"Dawn"
Autoscroll
slow
fast
+/-
esc
set tempo
stop
Contributor
Tuning
D G C F A D
#----------------------------------PLEASE NOTE---------------------------------#
#This file is the author's own work and represents their interpretation of the #
#song. You may only use this file for private study, scholarship, or research. #
#------------------------------------------------------------------------------#

DAWN (Bassline)
As recorded by Gojira
(From the 2005 Album THE LINK)

Transcribed by Metal Prather
	

Music by Gojira
Arranged by Gojira

Gtr I (D G C F) - 'Untitled'

  Q=143
 3/4      4/4
  Gtr I
  W        W          W          Q  E E Q  E E
|--------|----------|----------|---------------|
|--------|----------|----------|---------------|
|--------|----------|----------|-4--5p4-4--7p4-|
|--------|----------|----------|---------------|


  Q  E E Q  E E   Q  E E Q  E E   Q  E E Q  E E
|---------------|---------------|---------------|
|---------------|---------------|---------------|
|-4--5p4-4--7p4-|-4--5p4-4--7p4-|-4--5p4-4--7p4-|
|---------------|---------------|---------------|


    Q=143
    $                                                    To Coda
    Q  E E Q  E E   Q  E E Q  E E   Q  E E Q  E E   Q  E E Q  E E   5x
||----------------|---------------|---------------|-----------------||
||o---------------|---------------|---------------|----------------o||
||o-4--5p4-4--7p4-|-4--5p4-4--7p4-|-4--5p4-4--7p4-|-4--5p4-4--7p4--o||
||----------------|---------------|---------------|-----------------||


    Q  E E Q  E E   Q  E E Q  E E   Q  E E Q  E E   Q  E E Q  E E   4x
||----------------|---------------|---------------|-----------------||
||o---------------|---------------|---------------|----------------o||
||o-4--5p4-4--7p4-|-4--5p4-4--7p4-|-4--5p4-4--7p4-|-4--5p4-4--7p4--o||
||----------------|---------------|---------------|-----------------||


    Q=152
    &
    S S S S S S S S S S S S S S S S   S S S S S S S S S S S S S S S S
||----------------------------------|--------------------------------|
||o---------------------------------|--------------------------------|
||o---------------------------------|--------------------------------|
||--2-2-2-2-2-2-2-2-2-2-2-2-2-2-2-2-|-2-2-2-2-2-2-2-2-2-2-2-2-2-2-2-2|


                                                      D.S. al Coda
  S S S S S S S S S S S S S S S S   S S S S S S S S S S S S S S S S  4x
|---------------------------------|----------------------------------||
|---------------------------------|---------------------------------o||
|---------------------------------|---------------------------------o||
|-4-4-4-4-4-4-4-4-4-4-4-4-4-4-4-4-|-4-4-4-4-4-4-4-4-4-4-4-4-4-4-4-4--||


    Q=143
    Q  E E Q  E E   Q  E E Q  E E   Q  E E Q  E E   Q  E E Q  E E
||----------------|---------------|---------------|-----------------||
||o---------------|---------------|---------------|----------------o||
||o-4--5p4-4--7p4-|-4--5p4-4--7p4-|-4--5p4-4--7p4-|-4--5p4-4--7p4--o||
||----------------|---------------|---------------|-----------------||


  Q=143         H.=H
  Q  E E Q  E E   Q  E E Q  E E   Q  E E Q  E E   Q  E E Q  E E
|---------------|---------------|---------------|-----------------|
|---------------|---------------|---------------|-----------------|
|-4--5p4-4--7p4-|-4--5p4-4--7p4-|-4--5p4-4--7p4-|-4--5p4-4--7p4---|
|---------------|---------------|---------------|-----------------|


                                                  Q=90
  Q  E E Q  E E   Q  E E Q  E E   Q  E E Q  E E   Q  E E Q  E E
|---------------|---------------|---------------|-----------------|
|---------------|---------------|---------------|-----------------|
|-4--5p4-4--7p4-|-4--5p4-4--7p4-|-4--5p4-4--7p4-|-4--5p4-4--7p4---|
|---------------|---------------|---------------|-----------------|


                                                     2/4
  Q  H.        Q  H.        Q  H.        Q  H    Q    Q  Q
|------------|------------|------------|------------|-------|
|------------|------------|------------|------------|-------|
|-2----------|-2----------|-2----------|-2-------5--|-2-----|
|----2-------|----2-------|----2-------|----2-------|----2--|


    Q=118
   3/4
    Q  H      Q  Q  Q    Q  H      Q  Q  Q
||----------|----------|---------|---------|
||o---------|----------|---------|---------|
||o-2-------|-5--0--4--|-2-------|-5--0--4-|
||-----2----|----------|----2----|---------|


                                    |--3--|
  Q  H      Q  Q  Q    Q  H      Q  E. E. E. E
|---------|----------|---------|----------------|
|---------|----------|---------|----------------|
|-2-------|-5--0--4--|-2-------|-5--7--5--4-----|
|----2----|----------|----2----|----------------|


  Q  H      Q  Q  Q    Q  H      Q  Q  Q
|---------|----------|---------|-----------|
|---------|----------|---------|-----------|
|-2-------|-5--0--4--|-2-------|-5--0--4---|
|----2----|----------|----2----|-----------|


  Q  H      Q  Q  Q    Q  H      Q  e E E E
|---------|----------|---------|--------------||
|---------|----------|---------|-------------o||
|-2-------|-5--0--4--|-2-------|-5--7-5-4----o||
|----2----|----------|----2----|--------------||


  Q=118
  Q  H      Q  Q  Q    Q  H      Q  Q  Q
|---------|----------|---------|-----------|
|---------|----------|---------|-----------|
|-2-------|-5--0--4--|-2-------|-5--0--4---|
|----2----|----------|----3----|-----------|


                                    |--3--|
  Q  H      Q  Q  Q    Q  H      Q  E. E. E. E
|---------|----------|---------|----------------|
|---------|----------|---------|----------------|
|-2-------|-5--0--4--|-2-------|-5--7--5--4-----|
|----5----|----------|----3----|----------------|


  Q  H      Q  Q  Q    Q  H      Q  Q  Q
|---------|----------|---------|-----------|
|---------|----------|---------|-----------|
|-2-------|-5--0--4--|-2-------|-5--0--4---|
|----2----|----------|----3----|-----------|


  Q  H      Q  Q  Q    Q  H      Q  e E E E
|---------|----------|---------|-------------|
|---------|----------|---------|-------------|
|-2-------|-5--0--4--|-2-------|-5--7-5-4----|
|----5----|----------|----3----|-------------|


  Q=118
  Q  H      Q  Q  Q    Q  H      Q  Q  Q
|---------|----------|---------|-----------|
|---------|----------|---------|-----------|
|-2-------|-5--0--4--|-2-------|-5--0--4---|
|----2----|----------|----2----|-----------|


                                    |--3--|
  Q  H      Q  Q  Q    Q  H      Q  E. E. E. E
|---------|----------|---------|----------------|
|---------|----------|---------|----------------|
|-2-------|-5--0--4--|-2-------|-5--7--5--4-----|
|----2----|----------|----2----|----------------|


  Q  H      Q  Q  Q    Q  H      Q  Q  Q
|---------|----------|---------|-----------|
|---------|----------|---------|-----------|
|-2-------|-5--0--4--|-2-------|-5--0--4---|
|----2----|----------|----3----|-----------|


  Q  H      Q  Q  Q    Q  H      Q  e E E E
|---------|----------|---------|-------------|
|---------|----------|---------|-------------|
|-2-------|-5--0--4--|-2-------|-5--7-5-4----|
|----5----|----------|----3----|-------------|


  Q  H      Q  Q  Q    Q  H      Q  Q  Q
|---------|----------|---------|-----------|
|---------|----------|---------|-----------|
|-2-------|-5--0--4--|-2-------|-5--0--4---|
|----2----|----------|----2----|-----------|


  Q  H      Q  Q  Q    Q  H      Q  e E E E
|---------|----------|---------|-------------|
|---------|----------|---------|-------------|
|-2-------|-5--0--4--|-2-------|-5--7-5-4----|
|----2----|----------|----2----|-------------|


  Q  H      Q  Q  Q    Q  H      Q  Q  Q
|---------|----------|---------|-----------|
|---------|----------|---------|-----------|
|-2-------|-5--0--4--|-2-------|-5--0--4---|
|----2----|----------|----3----|-----------|


  Q  H      Q  Q  Q    Q  H      Q  e E E E
|---------|----------|---------|-------------|
|---------|----------|---------|-------------|
|-2-------|-5--0--4--|-2-------|-5--7-5-4----|
|----5----|----------|----3----|-------------|


    Q  H      Q  Q  Q    Q  H      Q  Q  Q
||----------|----------|---------|----------|
||o---------|----------|---------|----------|
||o-2-------|-5--0--4--|-2-------|-5--0--4--|
||-----2----|----------|----2----|----------|


  Q  H      Q  Q  Q    Q  H      Q  e E E E   4x
|---------|----------|---------|--------------||
|---------|----------|---------|-------------o||
|-2-------|-5--0--4--|-2-------|-5--7-5-4----o||
|----2----|----------|----2----|--------------||



Duration Legend
---------------
W - whole; H - half; Q - quarter; E - 8th; S - 16th; T - 32nd; X - 64th; a - acciaccatura
+ - note tied to previous; . - note dotted; .. - note double dotted
Uncapitalized letters represent notes that are staccato (1/2 duration)
Irregular groupings are notated above the duration line
Duration letters will always appear directly above the note/fret number it represents the
duration for.  Duration letters with no fret number below them represent rests.  Multi-
bar rests are notated in the form Wxn, where n is the number of bars to rest for.  Low
melody durations appear below the staff

Tablature Legend
----------------
 h   - hammer-on
 p   - pull-off
 b   - bend
 pb  - pre-bend
 r   - bend release (if no number after the r, then release immediately)
 /\  - slide into or out of (from/to "nowhere")
 s   - legato slide
 S   - shift slide
 - natural harmonic
[n]  - artificial harmonic
n(n) - tapped harmonic
 ~   - vibrato
 tr  - trill
 T   - tap
 TP  - trem. picking
 PM  - palm muting
\n/  - tremolo bar dip; n = amount to dip
 \n  - tremolo bar down
 n/  - tremolo bar up
/n\  - tremolo bar inverted dip
 =   - hold bend; also acts as connecting device for hammers/pulls
 <> - volume swell (louder/softer)
 x   - on rhythm slash represents muted slash
 o   - on rhythm slash represents single note slash

Misc Legend
-----------
 |  - bar
||  - double bar
||o - repeat start
o|| - repeat end
*|  - double bar (ending)
 :  - bar (freetime)
 $  - Segno
 &  - Coda
Tempo markers -  = BPM(8/16=s8/s16), where s8 = swing 8ths, s16 = swing 16ths

comments
print report bad tab
I want to post or [tab]
guest
You may want to rate the tab now too:
select rating
Please do not post tabs as comments. Select "correction" instead!