Oops, an error
Loading. Please wait.

Esoteric Surgery Tab

version 1
version 1

Whole song

Interactive

9,430 views 6 this week
1 commentread comment
1 2 3 4 5
x 3
add to favorites
launch autoscroll
font size
0
reset
how to read this tab
guitar tuner
Autoscroll
slow
fast
+/-
esc
set tempo
stop
Help us to improve Ultimate-Guitar.com Take our survey!
×
Author
-------------------------------------------------------------------------------
                             Esoteric Surgery - Gojira
-------------------------------------------------------------------------------
Tabbed by:Kameron Bogges
Email:Noremakseggob@yahoo.com|myspace.com/backwardst|youtube.com/backwardst

Tuning:DGCFAD (D standard)

-The only things not tabbed here are the alternate endings for the riffs, but 
there easy to figure out.


Intro:

|-----------------------------------------------|
|-----------------------------------------------|
|-----------------------------------------------|
|-----------------------------------------------|
|-77777777---------777---55555555--------555----|
|---------777777777---777--------77777777---777-|

----------------------------------------------|
----------------------------------------------|
----------------------------------------------|
----------------------------------------------|
333333332222222233322200000000-3---3---2---2--|
---------------------------------5---3---3----|


Verse riff:


|---------------------------------------------------------------|
|---------------------------------------------------------------|
|---------------------------------------------------------------|
|---------------------------------------------------------------|
|---------------------------------------------------------------|
|-000-0-000-0-000-0-000-0-000-0-000-0-000-0-000-0-000-0-000-0-0-|
PM... . ... . ... . ... . ... . ... . ... . ... . ... . ... . .


|--------------------------------------------------------------------------|
|--------------------------------------------------------------------------|
|--------------------------------------------------------------------------|
|--------------------------------(Dramatic pause and repeat)---------------|
|--------------------------------------------------------------------------|
|-3-3-3-3-3-3-3-3-222222222-2h3--------------------------------------------|
  . . . . . . . . .........


|--------------------------------------------------------------------------|
|--------------------------------------------------------------------------|
|--------------------------------------------------------------------------|
|-----------------------------------------2222000--------------------------|
|-2222222233332222222233332222333300003333---------------------------------|
|--------------------------------------------------000-0-0-0-0-0-----------|
                                                   ... . . . . .


|--------------------------------------------------------------------------|
|--------------------------------------------------------------------------|
|--------------------------------------------------------------------------|
|--------------------------------------------------------------------------|
|-2-----2-----2-----2h3-3p0-0-----0-----3-----3----------------------------|
|-2-2-2-2-2-2-2-2-2-2h3-3p0-0-0-0-0-0-0-3-3-3-3-3-3------------------------|
    . .   . .   . .           . .   . .   . .   . .

Interlude:
|---------------------|
|---------------------|
|---------------------|
|---------------------|
|---3---3--3---3---2--|
|-7---7---7--5---3----|

|------------------------|
|------------------------|
|------------------------|
|------------------------|
|---3---3--3---3---2/7-5-|
|-7---7---7--5---3-------|

|--------------------------------------------------------------------------|
|--------------------------------------------------------------------------|
|--------------------------------------------------------------------------|
|-7t---9t--10t-----9t-----7t-------9t--7t--5t----4t------------------------|
|--------------------------------------------------------------------------|
|--------------------------------------------------------------------------|
Suggest correction
Give kudos to tab author, rate the tab!
1 2 3 4 5
comments
print report bad tab
1 comment total.
0 reply
Timonst3r 10 Apr 01, 2014 05:41 PM

love it, thanks!

guest
You may want to rate the tab now too:
select rating
Wanna post a correction for this tab? Suggest correction