Oops, an error
Loading. Please wait.

Flying Whales Tab

version 1
version 1

Whole song

Interactive

50,571 views 60 this week
2 commentsread comments
1 2 3 4 5
x 12
add to favorites
launch autoscroll
font size
0
reset
how to read this tab
guitar tuner
Autoscroll
slow
fast
+/-
esc
set tempo
stop
Help us to improve Ultimate-Guitar.com Take our survey!
×
Difficulty
Tuning
intermediate
D G C F A D
#----------------------------------PLEASE NOTE--------------------------------#
#This file is the author's own work and represents their interpretation of the#
#song. You may only use this file for private study, scholarship, or research.#
#-----------------------------------------------------------------------------#
#-- File created with Instab - http://www.pconline.com/~smcarey/instab.html --#
#-----------------------------------------------------------------------------#

Author/Artist: Gojira
Title: Flying Whales
Album: From Mars to Sirius
Transcribed by: ander106
Email: IndianaMaggot@gmail.com

Guitar 1 Tuning : DGCFAD
Guitar 2 Tuning : DGCFAD

/ - Slide Up
\ - Slide Down
 . - Palm Mute
x - Mute Note
v - Pick Rake
~ - Let Ring

Guitar 1
D|--------------------------------------------------------------------------|
A|-----------------------------------------------------------------10-------|
F|--------------------------------------------------------9-----------------|
C|-----7-----------------------7----------7-------------------10------------|
G|-7-------8-----------7--------------7-------8-----------------------------|
D|-------------10----------8----------------------10------------------------|

Guitar 2
D|--------------------------------------------------------------------------|
A|--------------------------------------------------------------------------|
F|--------------------------------------------------------------------------|
C|-----7-----------------------7----------7-----------------------7---------|
G|-7-------8-----------7--------------7-------8-----------7-----------------|
D|-------------10----------8----------------------10----------8-------------|
                                                                          x6

  Guitar 1
D|-|-------------------------------------------------------------------------|
A|-|-------------------------------------------------------------------------|
F|-|-------------------------------------------------------------------------|
C|-|7\3---3-----3-3-----3-3-3/6----7\3---3-----3-3-----3-3-----3-3-3-3/6-----|
G|-|x-x-0-x-0-0-x-x-0-0-x-x-x-x----x-x-0-x-0-0-x-x-0-0-x-x-0-0-x-x-x-x-x-----|
D|-|5\1-0-1-0-0-1-1-0-0-1-1-1/4----5\1-0-1-0-0-1-1-0-0-1-1-0-0-1-1-1-1/4-----|
       .   . .     . .                .   . .     . .     . .

Guitar 2
D|-------------------------------------------------------------------------|
A|-------------------------------------------------------------------------|
F|-------------------------------------------------------------------------|
C|333333333333333333333333333333333333333333333333333333333333333333333333-|
G|-------------------------------------------------------------------------|
D|-------------------------------------------------------------------------|
                                                                          x2

D|----------------------------------------------------------------------------|
A|----------------------------------------------------------------------------|
F|----------------------------------------------------------------------------|
C|-7\3---3-----3-3-----3-3-3/6----7\3---3-----3-3-----3-3-----3-3-3-3/6-------|
G|-x-x-0-x-0-0-x-x-0-0-x-x-x-x----x-x-0-x-0-0-x-x-0-0-x-x-0-0-x-x-x-x-x-------|
D|-5\1-0-1-0-0-1-1-0-0-1-1-1/4----5\1-0-1-0-0-1-1-0-0-1-1-0-0-1-1-1-1/4-------|
       .   . .     . .                .   . .     . .     . .

D|----------------------------------------------------------------------------|
A|----------------------------------------------------------------------------|
F|----------------------------------------------------------------------------|
C|---7\3---3-----3-3-----3-3-3/6----7\3---3-----3-3-----3-3-----3-----3/6-----|
G|---x-x-0-x-0-0-x-x-0-0-x-x-x-x----x-x-0-x-0-0-x-x-0-0-x-x-0-0-x-3-2-x-x-----|
D|---5\1-0-1-0-0-1-1-0-0-1-1-1/4----5\1-0-1-0-0-1-1-0-0-1-1-0-0-1-3-2-1/4-----|
       .   . .     . .                .   . .     . .     . .   . .

D|--------------------------------------------------------------------------|
A|--------------------------------------------------------------------------|
F|--------------------------------------------------------------------------|
C|-7\3---3-----3-3-----3-3-3/6----7\3---3-----3-3-----3-3-----3-3-3-3/6-----|
G|-x-x-0-x-0-0-x-x-0-0-x-x-x-x----x-x-0-x-0-0-x-x-0-0-x-x-0-0-x-x-x-x-x-----|
D|-5\1-0-1-0-0-1-1-0-0-1-1-1/4----5\1-0-1-0-0-1-1-0-0-1-1-0-0-1-1-1-1/4-----|
       .   . .     . .                .   . .     . .     . .             x2

D|--------------------------------------------------------------------------|
A|--------------------------------------------------------------------------|
F|--------------------------------------------------------------------------|
C|-3--2--------------3--2--------------3--2--------------3--2---------------|
G|-x--2--------------x--2--------------x--2--------------x--2---------------|
D|-1--0--0000000000--1--0--0000000000--1--0--0000000000--1--0--0000000000---|
         ..........        ..........        ..........        ..........

D|--------------------------------------------------------------------------|
A|--------------------------------------------------------------------------|
F|--------------------------------------------------------------------------|
C|-7\3---3-----3-3-----3-3-3\6----7\3---3-----3-3-----3-3-----3-3-3-3/6-----|
G|-x-x-0-x-0-0-x-x-0-0-x-x-x-x----x-x-0-x-0-0-x-x-0-0-x-x-0-0-x-x-x-x-x-----|
D|-5\1-0-1-0-0-1-1-0-0-1-1-1/4----5\1-0-1-0-0-1-1-0-0-1-1-0-0-1-1-1-1/4-----|
       .   . .     . .                .   . .     . .     . .             x3

D|--------------------------------------------------------------------------|
A|--------------------------------------------------------------------------|
F|--------------------------------------------------------------------------|
C|-3--2--------------3--2--------------3--2--------------3--2---------------|
G|-x--2--------------x--2--------------x--2--------------x--2---------------|
D|-1--0--0000000000--1--0--0000000000--1--0--0000000000--1--0--0000000000---|
         ..........        ..........        ..........        .......... x2

D|--------------------------------------------------------------------------|
A|--------------------------------------------------------------------------|
F|--------------------------------------------------------------------------|
C|--------------------------------------------------------------------------|
G|--------------------------------------------------------------------------|
D|-1212121212121212-111111-101010-999-888-777-666---------------------------|
   ................ ...... ...... ... ... ... ...

D|----------------------------------------------------------------------------|
A|----------------------------------------------------------------------------|
F|----------------------------------------------------------------------------|
C|-2---7---3---------10--9---10--2---7---3------10--9---10--7/9--9/10-10------|
G|-2---x---x---------x---x---x---2---x---x------x---x---x---x-x--x-x--x-------|
D|-0---5---1---/10---8---7---8---0---5---1------8---7---8---5/7--7/8--8-------|


D|---------------------------------------------------------------------0------|
A|---------------------------------------------------------------------0------|
F|---------------------------------------------------------------------0------|
C|---2---7---3---------10--9---10--7/9--9/10-10--2---7---3---------7----------|
G|---2---x---x---------x---x---x---x-x--x-x--x---2---x---x---8--7--5----------|
D|---0---5---1---/10---8---7---8---5/7--7/8--8---0---5---1---8--7--5----------|
                                                           .  .

D|----------------------------------------------------------------------------|
A|----------------------------------------------------------------------------|
F|----------------------------------------------------------------------------|
C|---------------------------------------------------------6\5----------------|
G|-111-222-----111-222-333-----1-1-111-222-----111-222-333-4\3----------------|
D|-111-222-4p3-111-222-333-4p3-1-1-111-222-4p3-111-222-333-4\3----------------|
   ... ...     ... ... ...     . . ... ...     ... ... ...

D|------------------------------------------------------------------3----2----|
A|-----------------------------------------------------------------3----2-----|
F|----------------------------------------------------------------3----2------|
C|-----------------------------------------------------------6\5-3----2-------|
G|---111-222-----111-222-333-----1-1-111-222-----111-222-333-4\3--------------|
D|---111-222-4p3-111-222-333-4p3-1-1-111-222-4p3-111-222-333-4\3--------------|
   ... ...     ... ... ...     . . ... ...     ... ... ...     ~~~~ ~~~~

D|----------------------------------------------------------------------------|
A|----------------------------------------------------------------------------|
F|----------------------------------------------------------------------------|
C|-----------------------------------------------------------------6\5--------|
G|-1-1-1-1-111-222-----111-222-333-----1-1-111-222-----111-222-333-4\3--------|
D|-1-1-1-1-111-222-4p3-111-222-333-4p3-1-1-111-222-4p3-111-222-333-4\3--------|
   . . . . ... ...     ... ... ...     . . ... ...     ... ... ...

D|----------------------------------------------------------------------------|
A|----------------------------------------------------------------3-6---------|
F|----------------------------------------------------------------3-6---------|
C|-----------------------------------------------------------6\5--------------|
G|---111-222-----111-222-333-----1-1-111-222-----111-222-333-4\3--------------|
D|---111-222-4p3-111-222-333-4p3-1-1-111-222-4p3-111-222-333-4\3--------------|
   ... ...     ... ... ...     . . ... ...     ... ... ...

D|--------------------------------------------------------------|----------|
A|--------------------------------------------------------------|----------|
F|--------------------------------------------------------------|----------|
C|---------------------------------------------------------6\5--|6---5-----|
G|-111-222-----111-222-333-----1-1-111-222-----111-222-333-4\3--|x---x-----|
D|-111-222-4p3-111-222-333-4p3-1-1-111-222-4p3-111-222-333-4\3--|4---3-----|
   ... ...     ... ... ...     . . ... ...     ... ... ...    x3

D|----------------------------------------------------------------------------|
A|----------------------------------------------------------------------------|
F|----------------------------------------------------------------------------|
C|-----5-----5-----5-----5-3-----3-----3-----3-----5-----5-----5-----5--------|
G|---5-----5-----5-----5-------------------------5-----5-----5-----5----------|
D|-3-----3-----3-----3-------------------------3-----3-----3-----3------------|
   ~~~~~~~~~~~~~~~~~~~~~~~~~~~~~~~~~~~~~~~~~~~~~~~~~~~~~~~~~~~~~~~~~~~

D|-------------------|-------------------------------------------------------|
A|-------------------|-------------------------------------------------------|
F|-----------------0-|----0-----0-----0-----0-----0-----0-----0-----0--------|
C|-3-----3-------6---|--6-----6-----6-----6-----6-----6-----6-----6----------|
G|-------------------|-------------------------------------------------------|
D|-------------4-----|4-----4-----4-----4-----4-----4-----4-----4------------|
 ~~~~~~~~~~~~~~~~x3  ~~~~~~~~~~~~~~~~~~~~~~~~~~~~~~~~~~~~~~~~~~~~~~~      x2

D|------x----------------x----------------x----------------x----------------|
A|------x----------------x----------------x----------------x----------------|
F|----0-x--------------0-x--------------0-x--------------0-x----------------|
C|-6----x-----------6----x-----------6----x-----------6----x----------------|
G|-x----x-1--0--1-0-x----x-1--0--1-0-x----x-1--0--1-0-x----x-1--0--1-0------|
D|-4------1--0--1-0-4------1--0--1-0-4------1--0--1-0-4------1--0--1-0------|
        v .  .  . .      v .  .  . .      v .  .  . .      v .  .  . .    x4

D|--------------------------------------------------------------------------|
A|--------------------------------------------------------------------------|
F|-----0-----0-----0-----0-----0-----0-----0-----0--------------------------|
C|---6-----6-----6-----6-----6-----6-----6-----6----------------------------|
G|--------------------------------------------------------------------------|
D|-4-----4-----4-----4-----4-----4-----4-----4------------------------------|
   ~~~~~~~~~~~~~~~~~~~~~~~~~~~~~~~~~~~~~~~~~~~~~~~

D|--------------------------------------------------------------------------|
A|--------------------------------------------------------------------------|
F|--------------------------------------------------------------------------|
C|-3--2--------------3--2--------------3--2--------------3--2---------------|
G|-x--2--------------x--2--------------x--2--------------x--2---------------|
D|-1--0--0000000000--1--0--0000000000--1--0--0000000000--1--0--0000000000---|
         ..........        ..........        ..........        .......... x2

D|--------------------------------------------------------------------------|
A|--------------------------------------------------------------------------|
F|--------------------------------------------------------------------------|
C|-7\3---3-----3-3-----3-3-3/6----7\3---3-----3-3-----3-3-----3-------------|
G|-x-x-0-x-0-0-x-x-0-0-x-x-x-x----x-x-0-x-0-0-x-x-0-0-x-x-0-0-x-3-2---------|
D|-5\1-0-1-0-0-1-1-0-0-1-1-1/4----5\1-0-1-0-0-1-1-0-0-1-1-0-0-1-3-2---------|
       .   . .     . .                .   . .     . .     . .   . .



************************************

| x  Dead note
| p  Pull-off
| /  Slide up
| \  Slide down
| .  Palm mute
| v  Accent note
| ~  Vibrato

************************************
Suggest correction
comments
print report bad tab
2 comments total. show 1 bad comment
-1 reply
taylor.bailey.3 10 Feb 08, 2014 09:18 AM, edited at 09:23 am

C|-----5-----5-----5-----5-3-----3-----3-----3-----5-----5-----5-----5-----D|---5-----5-----5-----5-------------------------5-----5-----5-----5-------G|-3-----3-----3-----3-------------------------3-----3-----3-----3---------This part I think goes like this rather than the above. Hope it helps. Good tab, regardless and thank you.C|-----5-----5-----5-----5-3-----3-----3-----3-----5-----5-----5-----5-----D|---0-----0-----0-----0-------0-----0-----0----0-----0-----0-----0--------G|-3-----3-----3-----3-------5-----5-----5----3-----3-----3-----3----------Try that out and tell me what you think! Cheers!

guest
You may want to rate the tab now too:
select rating
Wanna post a correction for this tab? Suggest correction