Oops, an error
Loading. Please wait.

Flying Whales Tab

version 2
version 2

Whole song

Interactive

10,398 views 18 this week
5 commentsread comments
1 2 3 4 5
accurate
x 5
add to favorites
launch autoscroll
font size
0
reset
how to read this tab
guitar tuner
Autoscroll
slow
fast
+/-
esc
set tempo
stop
Help us to improve Ultimate-Guitar.com Take our survey!
×
Author
Gojira
Flying Whales

Tuning DGCFAD

My tab is half done, i would go with version 1 of this tab as it is complete and overall better.

Intro
|-------------------------------|    |--------------------|
|-------------------------------|    |--------------------|
|-------------------------------| or |---2----------2-----|
|-------------------------------|    |-2---3----2---------|
|-----12--------------------12--|    |-------5----3-------|
|-12------13---10-----12--8-----|    |--------------------|


2:27    GTR.2
|-------------------------------------------------| NOTE: play this for the first
|-------------------------------------------------| 4 bars below but play the last
|-------------------------------------------------| slide on the 4th bar. play
|-33333333333333333333333333333333333333333333333-| along with GTR.1 after that.
|-------------------------------------------------|
|-------------------------------------------------|


2:27                                                 -----------|
|-------------------------------------------------|             |
|-------------------------------------------------|             |
|-14-10---10-----10-10-----10-10-10/13------------|             |
|-14-10---10-----10-10-----10-10-10/13------------|             |
|-12-8----8------8--8------8--8---8/11------------|             |
|-------0----0-0-------0-0------------------------|             | play 2X
        .    . .       . .                                      |
                                                                |
2:31                                                            |
|-----------------------------------------------------|         |
|-----------------------------------------------------|         |
|-14-10---10-----10-10-----10-10-----10-10-10/9-10/13-|         |
|-14-10---10-----10-10-----10-10-----10-10-10/9-10/13-|         |
|-12-8----8------8--8------8--8------8--8---8/7--8/11-|         |
|-------0----0-0-------0-0-------0-0------------------|         |
        .    . .       . .       . .                            |
                                                                |
2:36                                                            |
|-------------------------------------------------|             |
|-------------------------------------------------|             |
|-14-10---10-----10-10-----10-10-10/13------------|             |
|-14-10---10-----10-10-----10-10-10/13------------|             |
|-12-8----8------8--8------8--8---8/11------------|             |
|-------0----0-0-------0-0------------------------|             |
        .    . .       . .                                      |
                                                                |
2:40                                                            |
|---------------------------------------------------|           |
|---------------------------------------------------|           |
|-14-10---10-----10-10-----10-10-----10-10-10-10/13-|           |
|-14-10---10-----10-10-----10-10-----10-10-10-10/13-|           |
|-12-8----8------8--8------8--8------8--8--8---8/11-|           |
|-------0----0-0-------0-0-------0-0----------------|           |
        .    . .       . .       . .                            |
                                                                |
2:45                                                            |
|-------------------------------------------------|             |
|-------------------------------------------------|             |
|-14-10---10-----10-10-----10-10-10/13------------|             |
|-14-10---10-----10-10-----10-10-10/13------------|             |
|-12-8----8------8--8------8--8---8/11------------|             |
|-------0----0-0-------0-0------------------------|             |
        .    . .       . .                                      |
                                                                |
2:48                                                            |
|-----------------------------------------------------|         |
|-----------------------------------------------------|         |
|-14-10---10-----10-10-----10-10-----10-10-10/9-10/13-|         |
|-14-10---10-----10-10-----10-10-----10-10-10/9-10/13-|         |
|-12-8----8------8--8------8--8------8--8---8/7--8/11-|         |
|-------0----0-0-------0-0-------0-0------------------|         |
        .    . .       . .       . .                            |
                                                                |
2:54                                                            |
|-------------------------------------------------|             |
|-------------------------------------------------|             |
|-14-10---10-----10-10-----10-10-10/13------------|             |
|-14-10---10-----10-10-----10-10-10/13------------|             |
|-12-8----8------8--8------8--8---8/11------------|             |
|-------0----0-0-------0-0------------------------|             |
        .    . .       . .                                      |
                                                                |
2:57                                                            |
|---------------------------------------------------|           |
|---------------------------------------------------|           |
|-14-10---10-----10-10-----10-10-----10-------10/13-|           |
|-14-10---10-----10-10-----10-10-----10--2-2--10/13-|           |
|-12-8----8------8--8------8--8------8---2-2---8/11-|           |
|-------0----0-0-------0-0-------0-0-----0-0--------|           |
        .    . .       . .       . .     . .         -----------|

3:20
|-------------------------------------------------|
|-------------------------------------------------|
|-10--9-------------------------------------------|
|-10--9-------------------------------------------| 4X
|-8---7-7777777777777777--------------------------|
|-------------------------------------------------|
        ................

3:30
|-------------------------------------------------|
|-------------------------------------------------|
|-14-10---10-----10-10-----10-10-10/13------------|
|-14-10---10-----10-10-----10-10-10/13------------|
|-12-8----8------8--8------8--8---8/11------------|
|-------0----0-0-------0-0------------------------|
        .    . .       . .                          

3:34
|---------------------------------------------------|
|---------------------------------------------------|
|-14-10---10-----10-10-----10-10-----10-10-10-10/13-|
|-14-10---10-----10-10-----10-10-----10-10-10-10/13-|
|-12-8----8------8--8------8--8------8--8--8---8/11-|
|-------0----0-0-------0-0-------0-0----------------|
        .    . .       . .       . .

3:39
|-------------------------------------------------|
|-------------------------------------------------|
|-14-10---10-----10-10-----10-10-10/13------------|
|-14-10---10-----10-10-----10-10-10/13------------|
|-12-8----8------8--8------8--8---8/11------------|
|-------0----0-0-------0-0------------------------|
        .    . .       . .                          

3:43
|-----------------------------------------------------|
|-----------------------------------------------------|
|-14-10---10-----10-10-----10-10-----10-10-10/9-10/13-|
|-14-10---10-----10-10-----10-10-----10-10-10/9-10/13-|
|-12-8----8------8--8------8--8------8--8---8/7--8/11-|
|-------0----0-0-------0-0-------0-0------------------|
        .    . .       . .       . .

3:48
|-------------------------------------------------|
|-------------------------------------------------|
|-14-10---10-----10-10-----10-10-10/13------------|
|-14-10---10-----10-10-----10-10-10/13------------|
|-12-8----8------8--8------8--8---8/11------------|
|-------0----0-0-------0-0------------------------|
        .    . .       . .                          

3:52
|---------------------------------------------------|
|---------------------------------------------------|
|-14-10---10-----10-10-----10-10-----10-10-10-10/13-|
|-14-10---10-----10-10-----10-10-----10-10-10-10/13-|
|-12-8----8------8--8------8--8------8--8--8---8/11-|
|-------0----0-0-------0-0-------0-0----------------|
        .    . .       . .       . .  

3:57
|-------------------------------------------------|
|-------------------------------------------------|
|-10--9-------------------------------------------|
|-10--9-------------------------------------------| 7X
|-8---7-7777777777777777--------------------------|
|-------------------------------------------------|
        ................

4:14
|--------------------------------------------------------|
|--------------------------------------------------------|
|-10--9--------------------------------------------------|
|-10--9--------------------------------------------------|
|-8---7-77777777777777776666666555555444444333332221111--|
|--------------------------------------------------------|
        ...............................................

4:18
|----------------------------------------------|
|----------------------------------------------|
|----9-----------------------------------------|
|-9--7--10-------------------------------------|
|-7-----8------------10-9--7-------------------|
|-----------/10------8--7--5-------------------|

4:28
|----------------------------------------------|
|----------------------------------------------|
|----9-----------------------------------------|
|-9--7--10-------------------------------------|
|-7-----8------------10-9--7-------------------|
|--------------------8--7--5-------------------|

4:38
|----------------------------------------------|
|----------------------------------------------|
|----9-----------------------------------------|
|-9--7--10-------------------------------------|
|-7-----8------------10-9--7-------------------|
|-----------/10------8--7--5-------------------|

4:48
|----------------------------------------------|
|----------------------------------------------|
|----9-----------------------------------------|
|-9--7--10-------------------------------------|
|-7-----8------------10-9--7-------------------|
|--------------------8--7--5-------------------|
                     .  .


4:55  this is the heavy part
|-------------------------------------------------|
|-------------------------------------------------|
|-5nh---------------------------------------------|
|-5nh---------------------------------------------|
|-------------------------------------------------|
|-------------------------------------------------|
Suggest correction
comments
print report bad tab
5 comments total. Showing first comments.
+1 reply
TMA-2 1,041 wrote on July 19 2007, 12:18 pm

they play DGCFAD not EADGBE

+1 reply
Pavura 72 wrote on November 24 2007, 09:56 am

The intro is right, and then most of it is good...
but you just end off right before the good stuff.
its only half
complete.

0 reply
Aethen 41 wrote on April 20 2008, 05:51 pm

i thought it was drop d not d standard

guest
You may want to rate the tab now too:
select rating
Wanna post a correction for this tab? Suggest correction