Oops, an error
Loading. Please wait.

In The Wilderness Tab

version 1
version 1

Whole song

Interactive

5,003 views 6 this week
no commentswrite comment
1 2 3 4 5
x 4
add to favorites
launch autoscroll
font size
0
reset
how to read this tab
guitar tuner
Autoscroll
slow
fast
+/-
esc
set tempo
stop
Help us to improve Ultimate-Guitar.com Take our survey!
×
Author
Difficulty
Tuning
intermediate
D G C F A D
#--------------------------------PLEASE NOTE-------------------------------#
#This file is the author's own work and represents their interpretation of the#
#song. You may only use this file for private study, scholarship, or research.#
#--------------------------------------------------------------------------#
#- File created with Instab -http://www.pconline.com/~smcarey/instab.html -#
#--------------------------------------------------------------------------#

Author/Artist: Gojira
Title: In the wilderness
Album: From Mars To Sirius
Transcribed by: Jaymz88
DGCFAD

----------------------------------------------------------------------------|
----------------------------------------------------------------------------|
----------------------------------------------------------------------------|
----------------------------------------------------------------------------|
-------------------------------------------3-3-3-3-3-3-3-3-3----------------|
-1-1-1--2-2-2--3-3-3--2-2-2--1-1-1--2-2-2-----------------------------------|
 - - -  - - -  - - -  - - -  - - -  - - -

----------------------------------------------------------------------------|
----------------------------------------------------------------------------|
----------------------------------------------------------------------------|
----------------------------------------------------------------------------|
----------------------------------------3-3-3-3-3-3-3-3-3-------------------|
-1-2-3-2-1-2-1-2-3-2-1-2-1-2-3-2-1-2-1--------------------------------------|
 - - - - - - - - - - - - - - - - - - -


----------------------------------------------------------------------------|
----------------------------------------------------------------------------|
----------------------------------------------------------------------------|
----------------------------------------------------------------------------|
-------------------------------------------3-3-3-3-3-3-3-3-3----------------|
-1-1-1--2-2-2--3-3-3--2-2-2--1-1-1--2-2-2-----------------------------------|
 - - -  - - -  - - -  - - -  - - -  - - -


----------------------------------------------------------------------------|
----------------------------------------------------------------------------|
----------------------------------------------------------------------------|
----------------------------------------------------------------------------|
----------------------------------------3-3-3-3-3-3-3-3-3-------------------|
-1-2-3-2-1-2-1-2-3-2-1-2-1-2-3-2-1-2-1--------------------------------------|
 - - - - - - - - - - - - - - - - - - -


----------------------------------------------------------------------------|
----------------------------------------------------------------------------|
----------------------------------------------------------------------------|
--5-5-5-5-5-5--4-4-4-4-4--5-5-5-5-5-5--7-7--8-8-8-8-8-8-8--9-9-9-9-9-9-9----|
--x-x-x-x-x-x--x-x-x-x-x--x-x-x-x-x-x--x-x--x-x-x-x-x-x-x--x-x-x-x-x-x-x----|
--3-3-3-3-3-3--2-2-2-2-2--3-3-3-3-3-3--5-5--6-6-6-6-6-6-6--7-7-7-7-7-7-7----|

-------------------------------------|-------------------------------------|
-------------------------------------|-------------------------------------|
-------------------------------------|-------------------------------------|
-----5--5-----5--5-----5/6--5--4-----|-----5--5-----5--5-----6--5--4-------|
-----x--x-----x--x-----x-x--x--x-----|-----x--x-----x--x-----x--x--x-------|
--0--3--3--0--3--3--0--3/4--3--2-----|--0--3--3--0--3--3--0--4--3--2-------|
  -        -        -                   -        -        -

----------------------x-----------------------------|------------------------|
----------------------x-----------------------------|------------------------|
----------------------x-----------------------------|------------------------|
----------------------x---------------3--3-----3----|--2-2-2-2-2-2-2-2-2-2---|
-0-0-0-0-0-0-0-0-0-0--x--0-0-0-0-0-0--1--1-----1----|--2-2-2-2-2-2-2-2-2-2---|
-0-0-0-0-0-0-0-0-0-0-----0-0-0-0-0-0--0--0--0--0----|--0-0-0-0-0-0-0-0-0-0---|
 - - - - - - - - - - A.H - - - - - -        -          - - - - - - - - - -

Guitar I
-----------------------------------------------------------------------------|
-----------------------------------------------------------------------------|
-----------------------------------------------------------------------------|
----3--3-----3--3-----3--3---------------------------------------------------|
----x--x-----x--x-----x--x---------------------------------------------------|
-0--1--1--0--1--1--0--1--1---------------------------------------------------|
 -        -        -

Guitar II
----------------------------------------------------------------------------|
----------------------------------------------------------------------------|
--5-5-5-5-5-5-5-5-5-5-5-5-5-5-5-5-5-5-5-5-5-5-5-5-5-5-5-5-5-----------------|
--x-x-x-x-x-x-x-x-x-x-x-x-x-x-x-x-x-x-x-x-x-x-x-x-x-x-x-x-x-----------------|
--3-3-3-3-3-3-3-3-3-3-3-3-3-3-3-3-3-3-3-3-3-3-3-3-3-3-3-3-3-----------------|
----------------------------------------------------------------------------|


----------------------------------------------------------------------------|
----------------------------------------------------------------------------|
-----------------------------------17-17-17-17-17-17-17--14-14-14-14--16-16-|
------------------------------------x--x--x--x--x--x--x---x--x--x--x---x--x-|
-----------------------------------15-15-15-15-15-15-15--12-12-12-12--14-14-|
--1-2-3-2-1-2-1-2-3-2-1-2-3-2-1-2-------------------------------------------|
  - - - - - - - - - - - - - - - -

----------------------------------------------------------------------------|
----------------------------------------------------------------------------|
-16-16-16--13-13-13-13-13-13-13---------------------------------------------|
--x--x--x---x--x--x--x--x--x--x---------------------------------------------|
-14-14-14--11-11-11-11-11-11-11---------------------------------------------|
----------------------------------------------------------------------------|
Suggest correction
comments
print report bad tab
guest
You may want to rate the tab now too:
select rating
Wanna post a correction for this tab? Suggest correction