Oops, an error
Loading. Please wait.

Indians Tab

version 1
version 1

Whole song

Interactive

5,106 views 6 this week
2 commentsread comments
1 2 3 4 5
2 more votes to show rating
add to favorites
launch autoscroll
font size
0
reset
how to read this tab
guitar tuner
Autoscroll
slow
fast
+/-
esc
set tempo
stop
Help us to improve Ultimate-Guitar.com Take our survey!
×
Author
Difficulty
advanced
#--------------------------------PLEASE NOTE------------------------------#
#This file is the author's own work and represents their interpretation of the#
#song. You may only use this file for private study, scholarship, or research.#
#--------------------------------------------------------------------------#
#-- File created with Instab http://www.pconline.com/~smcarey/instab.html -#
#--------------------------------------------------------------------------#

Author/Artist: Gojira
Title: Indians
Album: The Link
Transcribed by: Jaymz88
DGCFAD


----------------------------------------------------------------------------|
----------0------------------------------------------------0-----0-----0----|
--------1--------------------------------------2/4---------0-----0-----0----|
------0----------------------------------------------------0-----0-----0----|
----0-----------0--0--0--0--0-0---0--0-0--0-0--------0--0-----0-----0-------|
--0-------------1--1--1--1--1-1---1--1-1--1-1--------0--0-----0-----0-------|
             PM -  -  -  -  - -   -  - -  - -        -  -     -     -

----------------------------------------------------------------------------|
--------------------------------------------------0-------------------------|
-----------------------------------2/4------------0----1-2-2/4-2p1-2v-------|
--------------------------------------------------0-------------------------|
----0--0--0--0--0-0---0--0-0--0-0--------0--0--0-----------------------0--0-|
----1--1--1--1--1-1---1--1-1--1-1--------0--0--0-----------------------1--1-|
       -  -  -  - -   -  - -  - -        -  -  -  - -                  -  -

-----------------------------------------------------------------------------|
--------------------------------------0-----0-----0--------------------------|
-------------------------2/4----------0-----0-----0--------------------------|
--------------------------------------0-----0-----0--------------------------|
-0-0--0-0---0--0-0--0-0------0--0--0-----0-----0---------0--0--0--0--0-0---0-|
-1-1--1-1---1--1-1--1-1------0--0--0-----0-----0---------1--1--1--1--1-1---1-|
 - -  - -   -  - -  - -      -  -  -     -     -         -  -  -  -  - -   -

----------------------------------------------------------------------------|
------------------------0---------------------------------------------------|
----------2/4-----------0--1-2-2/4------------------------------------------|
------------------------0---------------------------------------------------|
-0-0--0-0------0--0--0------------------------------------------------------|
-1-1--1-1------0--0--0------------------------------------------------------|
 - -  - -      -  -  -
End of the intro


----------------------------------------------------------------------------|
-----------------------------------------------0----0-----0-----------------|
-----------------------------------------------0----0-----0-----------------|
-----------------------------------------------0----0-----0-----------------|
--0--0--0--0--0-0---0--0-0--0--0---0--0--0--0--------------------0--0--0--0-|
--1--1--1--1--1-1---1--1-1--1--1---0--0--0--0-----0----0---------1--1--1--1-|
  -  -  -  -  - -   -  - -  -  -   -  -  -  -     -    -         -  -  -  -

-----------------------------------------------------------------------------|
-----------------------------------0--------0--------0--------0--------------|
-----------------------------------0--------0--------0--------0--------------|
-----------------------------------0--------0--------0--------0--------------|
--0-0---0--0-0--0--0---0--0--0--0----0----0---0----0---0----0-----0--0--0--0-|
--1-1---1--1-1--1--1---0--0--0--0----0----0---0----0---0----0-----1--1--1--1-|
  - -   -  - -  -  -   -  -  -  -    -    -   -    -   -    -     -  -  -  -

----------------------------------------------------------------------------|
--------------------------------0------0-----0------------------------------|
--------------------2/4---------0------0-----0------------------------------|
--------------------------------0------0-----0------------------------------|
-0-0---0--0-0--0-0--------------------------------0--0--0--0--0-0---0--0-0--|
-1-1---1--1-1--1-1-----------0------0-----0-------1--1--1--1--1-1---1--1-1--|
 - -   -  - -  - -           -      -     -       -  -  -  -  -  -  -  - -

----------------------------------------------------------------------------|
--------------------0-----0-------------------------------------------------|
--------------------0-----0-------------------------------------------------|
--------------------0-----0-------------------------------------------------|
-0--0---0--0--0--0----------------------------------------------------------|
-1--1---0--0--0--0-----0---------------------------------------------------- -  -   -  -  -  -


Chorus
----------------------------------------------------------------------------|
----------------------------------------------------------------------------|
----------------------------------------------------------------------------|
----------------------------------------------------------------------------|
----------------------------------------------------------------------------|
--0--0--0--0--0-0--0--0--0-0--0--0-0--0--0--0--0--0--0--0--0--0-0--0--0--0--|
  -  -  -  -  - -  -  -  - -  -  - -  -  -  -  -  -  -  -  -  - -  -  -  -

-----------------------------------------------------------------------------|
-----------------------------------------------------------------------------|
-----------------------------------------------------------------------------|
-----------------------------------------------------------------------------|
-x-x--x-x--x-x--x-x----------------------------------------------------------|
-x-x--x-x--x-x--x-x--0--0--0--0--0-0--0--0--0-0--0--0-0--0--0--0--0--0--0--0-|
 - -  - -  - -  - -  -  -  -  -  - -  -  -  - -  -  - -  -  -  -  -  -  -  -

-----------------------------------------------------------------------------|
-----------------------------------------------------------------------------|
-----------------------------------------------------------------------------|
-----------------------------------------------------------------------------|
------------------x-x--x-x--x-x--x-x--x-x--x-x--x-x--x-x---------------------|
-0--0-0--0--0--0--x-x--x-x--x-x--x-x--x-x--x-x--x-x--x-x--0--0--0--0--0-0--0-|
         -  -  -  - -  - -  - -  - -  - -  - -  - -  - -  -  -  -  -  - -  -

----------------------------------------------------------------------------|
----------------------------------------------------------------------------|
----------------------------------------------------------------------------|
----------------------------------------------------------------------------|
-------------------------------------------------------x-x--x-x--x-x--x-x---|
-0--0-0--0--0-0--0--0--0--0--0--0--0--0--0-0--0-0-0----x-x--x-x--x-x--x-x---|
 -  - -  -  - -  -  -  -  -  -  -  - - - - -  - - -    - -  - -  - -  - -

----------------------------------------------------------------------------|
----------------------------------------------------------------------------|
----------------------------------------------------------------------------|
----------------------------------------------------------------------------|
----------------------------------------------------------------------------|
--0--0--0--0--0-0--0--0--0-0--0--0-0--0--0--0--0--0--0--0--0--0-0--0--0--0--|
  -  -  -  -  - -  -  -  - -  -  - -  -  -  -  -  -  -  -  -  - -  -  -  -

----------------------------------------------------------------------------|
----------------------------------------------------------------------------|
--4-3---4-3---4-3---4-3-4--3------------------------------------------------|
--x-x---x-x---x-x---x-x-x--x---6-5--6-5-6-5-6---5--------------------3------|
--2-1---2-1---2-1---2-1-2--1---x-x--x-x-x-x-x---x--------------------x------|
-------------------------------4-3--4-3-4-3-4---3--------------------1------|


----------------------------------------------------------------------------|
---------------------------------------------0------------------------------|
---------------------------------2/4---------0------1--2--2/4--4/5--5-------|
---------------------------------------------0------------------------------|
--0--0--0--0--0-0---0--0-0--0-0-----------0---------------------------------|
--1--1--1--1--1-1---1--1-1--1-1-----------0---------------------------------|
  -  -  -  -  - -   -  - -  - -           -

----------------------------------------------------------------------------|
-------------------------------------------------0---0---0------------------|
----------------------------------2/4------------0---0---0------------------|
-------------------------------------------------0---0---0------------------|
--0--0--0--0--0-0---0--0-0--0-0---------0--0--0-----------------------------|
--1--1--1--1--1-1---1--1-1--1-1---------0--0--0-----------------------------|
  -  -  -  -  - -   -  -  - - -         -  -  -

----------------------------------------------------------------------------|
------------------------------------------------0---------------------------|
------------------------------------------------0---1--2--2/4--4/5--5-------|
------------------------------------------------0---------------------------|
--0--0--0--0--0-0---0--0-0--0-0---0--0--0--0--0-----------------------------|
--1--1--1--1--1-1---1--1-1--1-1---0--0--0--0--0-----------------------------|
  -  -  -  -  - -   -  - -  - -   -  -  -  -  -


-----------------------------------------------------------------------------|
-----------------------------------0--------0--------0--------0--------------|
-----------------------------------0--------0--------0--------0--------------|
-----------------------------------0--------0--------0--------0--------------|
--0-0---0--0-0--0--0---0--0--0--0----0----0---0----0---0----0-----0--0--0--0-|
--1-1---1--1-1--1--1---0--0--0--0----0----0---0----0---0----0-----1--1--1--1-|
  - -   -  - -  -  -   -  -  -  -    -    -   -    -   -    -     -  -  -  -

----------------------------------------------------------------------------|
--------------------------------0------0-----0------------------------------|
--------------------------------0------0-----0------------------------------|
--------------------------------0------0-----0------------------------------|
-0-0---0--0-0--0-0--0--0--0--0--------------------0--0--0--0--0-0---0--0-0--|
-1-1---1--1-1--1-1--0--0--0--0------0-----0-------1--1--1--1--1-1---1--1-1--|
 - -   -  - -  - -  -  -  -  -      -     -       -  -  -  -  -  -  -  - -

----------------------------------------------------------------------------|
--------------------0-----0-------------------------------------------------|
--------------------0-----0-------------------------------------------------|
--------------------0-----0-------------------------------------------------|
-0--0---0--0--0--0----------------------------------------------------------|
-1--1---0--0--0--0-----0----------------------------------------------------|
 -  -   -  -  -  -     -

Chorus
----------------------------------------------------------------------------|
----------------------------------------------------------------------------|
----------------------------------------------------------------------------|
----------------------------------------------------------------------------|
----------------------------------------------------------------------------|
--0--0--0--0--0-0--0--0--0-0--0--0-0--0--0--0--0--0--0--0--0--0-0--0--0--0--|
  -  -  -  -  - -  -  -  - -  -  - -  -  -  -  -  -  -  -  -  - -  -  -  -

-----------------------------------------------------------------------------|
-----------------------------------------------------------------------------|
-----------------------------------------------------------------------------|
-----------------------------------------------------------------------------|
-x-x--x-x--x-x--x-x----------------------------------------------------------|
-x-x--x-x--x-x--x-x--0--0--0--0--0-0--0--0--0-0--0--0-0--0--0--0--0--0--0--0-|
 - -  - -  - -  - -  -  -  -  -  - -  -  -  - -  -  - -  -  -  -  -  -  -  -

-----------------------------------------------------------------------------|
-----------------------------------------------------------------------------|
-----------------------------------------------------------------------------|
-----------------------------------------------------------------------------|
------------------x-x--x-x--x-x--x-x--x-x--x-x--x-x--x-x---------------------|
-0--0-0--0--0--0--x-x--x-x--x-x--x-x--x-x--x-x--x-x--x-x--0--0--0--0--0-0--0-|
         -  -  -  - -  - -  - -  - -  - -  - -  - -  - -  -  -  -  -  - -  -

----------------------------------------------------------------------------|
----------------------------------------------------------------------------|
----------------------------------------------------------------------------|
----------------------------------------------------------------------------|
-------------------------------------------------------x-x--x-x--x-x--x-x---|
-0--0-0--0--0-0--0--0--0--0--0--0--0--0--0-0--0-0-0----x-x--x-x--x-x--x-x---|
 -  - -  -  - -  -  -  -  -  -  -  - - - - -  - - -    - -  - -  - -  - -

----------------------------------------------------------------------------|
----------------------------------------------------------------------------|
----------------------------------------------------------------------------|
----------------------------------------------------------------------------|
----------------------------------------------------------------------------|
--0--0--0--0--0-0--0--0--0-0--0--0-0--0--0--0--0--0--0--0--0--0-0--0--0--0--|
  -  -  -  -  - -  -  -  - -  -  - -  -  -  -  -  -  -  -  -  - -  -  -  -

----------------------------------------------------------------------------|
----------------------------------------------------------------------------|
--4-3---4-3---4-3---4-3-4--3------------------------------------------------|
--x-x---x-x---x-x---x-x-x--x---6-5--6-5-6-5-6---5----x2---------------------|
--2-1---2-1---2-1---2-1-2--1---x-x--x-x-x-x-x---x---------------------------|
-------------------------------4-3--4-3-4-3-4---3---------------------------|

----------------------------------------------------------------------------|
----------------------------------------------------------------------------|
----------------------------------------------------0--------------------0--|
----------------------------------------------------0--------------------0--|
-1-1-1--2-2-2--3-3-3--2-2-2--1-1-1--2-2-2-----------------------------------|
-1-1-1--2-2-2--3-3-3--2-2-2--1-1-1--2-2-2--1--2--3-----1--1--2--3--2--1-----|
 - - -  - - -  - - -  - - -  - - -  - - -  -  -  -     -  -  -  -  -  -

-----------------------------------------------------------------------------|
-----------------------------------------------------------------------------|
--------------------5------------------------------------------------0-------|
---------------------------------------------------------------------0-------|
------------------------1-1-1--2-2-2--3-3-3--2-2-2--1-1-1--------------------|
-1--1--2--3--2--1-------1-1-1--2-2-2--3-3-3--2-2-2--1-1-1---1--2--3-----1--1-|
 -  -  -  -  -  -  harm - - -  - - -  - - -  - - -  - - -   -  -  -     -  -

-----------------------------------------------------------------------------|
-----------------------------------------------------------------------------|
--------------0--------------------0-----------------------------------------|
--------------0--------------------0-----------------------------------------|
-----------------------------------------------------------------------------|
--2--3--2--1-----1--1--2--3--2--1------1--1--1--2--2--2--3--3--3--2--2--2--1-|
  -  -  -  -     -  -  -  -  -  -      -  -  -  -  -  -  -  -  -  -  -  -  -

----------------------------------------------------------------------------|
----------------------------------------------------------------------------|
-------------------------0-------------------0--------------------5---------|
-------------------------0-------------------0------------------------------|
---------------------------------------------------------------------1-1-1--|
-1--1--1--1--2--3--2--1-----1--1--2--3--2--1-----1--1--2--3--2--1----1-1-1--|
 -  -  -  -  -  -  -  -     -  -  -  -  -  -     -  -  -  -  -  -harm- - -

-----------------------------------------------------------------------------|
-----------------------------------------------------------------------------|
---------------------------------------------0--------------------0----------|
---------------------------------------------0--------------------0----------|
-2-2-2--3-3-3--2-2-2--1-1-1--2-2-2-------------------------------------------|
-2-2-2--3-3-3--2-2-2--1-1-1--2-2-2--1--2--3-----1--1--2--3--2--1------1--1-2-|
 - - -  - - -  - - -  - - -  - - -  -  -  -     -  -  -  -  -  -      -  -  -

----------------------------------------------------------------------------|
----------------------------------------------------------------------------|
------------4-5--4-5--4-5----------------4-5--4-----------------------------|
------------x-x--x-x--x-x----------------x-x--x-----------------------------|
------------2-3--2-3--2-3--1-1-1--2-2-2--2-3--2--1-1-1--2-2-2--3-3-3--2-2-2-|
--3--2--1------------------1-1-1--2-2-2----------1-1-1--2-2-2--3-3-3--2-2-2-|
  -  -  -                  - - -  - - -          - - -  - - -  - - -  - - -
----------------------------------------------------------------------------|
----------------------------------------------------------------------------|
-------------------------0--------------------0---------------------6--5----|
-------------------------0--------------------0---------------------x--x----|
--1-1-1--2-2-2------------------------------------------------------4--3----|
--1-1-1--2-2-2--1--2--3-----1--1--2--3--2--1------1--1--2--3--2--1----------|
  - - -  - - -  -  -  -     -  -  -  -  -  -      -  -  -  -  -  -

-----------------------------------------------------------------------------|
-----------------------------------------------------------------------------|
---------6v---------8v-------------------------------------------------------|
---------x----------x--------------------------------------------------------|
--0--0---4v---0--2--6v---0--1--2---0--2\-----1-1-1--2-2-2--3-3-3--2-2-2--1-1-|
--0--1--------0--2-------0--1--2---0--2\-----1-1-1--2-2-2--3-3-3--2-2-2--1-1-|
  -  -        -  -       -  -  -     -       - - -  - - -  - - -  - - -  - -

----------------------------------------------------------------------------|
----------------------------------------------------------------------------|
-------------0--------------------0---------------------5-------------------|
-------------0--------------------0-----------------------------------------|
-1--------------------------------------------------------------------------|
-1--1--2--3-----1--1--2--3--2--1------1--1--2--3--2--1-------1--1--1--2--2--|
 -  -  - -      -  -  -  -  -  -      -  -  -  -  -  - harm  -  -  -  -  -

----------------------------------------------------------------------------|
----------------------------------------------------------------------------|
--------------------------------------------------0--------------------0----|
--------------------------------------------------0--------------------0----|
----------------------------------------------------------------------------|
-2--3--3--3--2--2--2--1--1--1---1--1--2--3--2--1-----1--1--2--3--2--1-------|
 -  -  -  -  -  -  -  -  -  -   -  -  -  -  -  -     -  -  -  -  -  -

----------------------------------------------------------------------------|
----------------------------------------------------------------------------|
--------------------0-------------------------------------------------------|
--------------------0-------------------------------------------------------|
----------------------------------------------------------------------------|
-1-1-1--2--3--2--1----------------------------------------------------------|
 - - -  -  -  -  -
Suggest correction
Give kudos to tab author, rate the tab!
1 2 3 4 5
comments
print report bad tab
2 comments total.
0 reply
Fungi21 10 Mar 27, 2014 04:40 PM

Really this song is in drop D. I thought it was drop D standard. Hmm I'll check it out.

0 reply
jaymz88 1,094 Mar 27, 2014 07:48 PM

They play D standard or CGCD#GC. All the song on the Link are in D standard...

guest
You may want to rate the tab now too:
select rating
Wanna post a correction for this tab? Suggest correction