Oops, an error
Loading. Please wait.

Lenfant Sauvage Tab

version 1
version 1

Whole song

Interactive

by Gojira
14,619 views 120 this week
no commentswrite comment
1 2 3 4 5
x 9
add to favorites
launch autoscroll
font size
0
reset
how to read this tab
guitar tuner
×
Best way to learn
"Lenfant Sauvage"
Autoscroll
slow
fast
+/-
esc
set tempo
stop
Author
Difficulty
Tuning
novice
C G C F A D
-----------------------------------------------------------------------------------------
                                GOJIRA - L'ENFANT SAUVAGE
                               Album: L'enfant Sauvage (2012)
-----------------------------------------------------------------------------------------
           If you have questions or corrections feel free to send me a message:
                        http://profile.ultimate-guitar.com/godspeedy/
                           https://www.facebook.com/Godspeedy14
                           
        Also, check out my Youtube channel: http://www.youtube.com/user/Godspeedy14

                                  Tuning: 6 string CGCFAD

       based on a lesson by Joe Duplantier: http://www.youtube.com/watch?v=6xUoOaHzk5s

-----------------------------------------------------------------------------------------
                                     INTRO (00:00-00:26)
-----------------------------------------------------------------------------------------

Guitars 1 and 2 (w/ dist)

   П V П V П V П V П V П V П V П V         П V П V П V П V П V П V П V П V 
D|---------------------------------|     |---------------------------------|
A|---------------------------------|     |---------------------------------|
F|---------------------------------| x3  |---------------------------------|
C|---------------------------------|     |---------------------------------|
G|---------------------------------|     |---------------------------------|
C|-0-0-0-0-0-0-0-0-0-0-0-0-0-0-0-0-|     |-0-0-0-0-0-0-0-0-0-0-0-0-0-0-0-0-|
   * * *   * * * * * * *   * * * *         * * *   * * * * * * *   *   * 

   П V П V П V П V П V П V П V П V         П V П V П V П V П V П V П V П V 
D|---------------------------------|     |---------------------------------|
A|---------------------------------|     |---------------------------------|
F|---------------------------------| x3  |---------------------------------|
C|---------------------------------|     |---------------------------------|
G|---------------------------------|     |-----------------0-0-0-0-0-0-0-0-|
C|-0-0-0-0-0-0-0-0-0-0-0-0-0-0-0-0-|     |-0-0-0-0-0-0-0-0-0-0-0-0-0-0-0-0-|
   * * *   * * * * * * *   * * * *         * * * 

-----------------------------------------------------------------------------------------
                                    VERSE (00:26-01:10)
-----------------------------------------------------------------------------------------

Guitars 1 and 2 (w/ dist)

D|-----------------------------|
A|-----------------------------|
F|-----------------------------| x23
C|-----------------------------|
G|-----------------------------|
C|-0-0-0-0-0-0-0-0-0-----------|
   * * * * * * * * *
D|---------------------------------|
A|---------------------------------|
F|---------------------------------|
C|---------------------------------|
G|---------------------------------|
C|-0-0-0-0-0-0-0-0-2-2-2-2-3-3-3-3-|
   * * * * * * * *

Guitar 3 (w/ dist and delay)

D|-------------------------------------------------|-------------------------------------------------|
A|-------------------------------------------------|-------------------------------------------------|
F|-------------------------------------------------|-------------------------------------------------|
C|-15-15-15-15-15-15-15-15-17p15-15-15-15-15-15-15-|-15-15-15-15-15-15-15-15-15-15-15-15-17-17-17-17-|
G|-------------------------------------------------|-------------------------------------------------|
C|-------------------------------------------------|-------------------------------------------------|
   *  *  *  *  *  *  *  *        *  *  *  *  *  *    *  *  *  *  *  *  *  *  *  *  *  *  
D|-------------------------------------------------|-------------------------------------------------|
A|-------------------------------------------------|-------------------------------------------------|
F|-------------------------------------------------|-15-15-15-15-15-15-15-15-15-15-17-17-17-17-17-17-|
C|-14-14-14-14-14-14-14-14-14-14-14-14-14-14-14-14-|-------------------------------------------------|
G|-------------------------------------------------|-------------------------------------------------|
C|-------------------------------------------------|-------------------------------------------------|
   *  *  *  *  *  *  *  *  *  *  *  *  *  *  *  *  
D|-------------------------------------------------|-------------------------------------------------|
A|-------------------------------------------------|-------------------------------------------------|
F|-------------------------------------------------|-------------------------------------------------|
C|-15-15-15-15-15-15-15-15-17p15-15-15-15-15-15-15-|-15-15-15-15-15-15-15-15-17-17-17-17s19-19-19-19-|
G|-------------------------------------------------|-------------------------------------------------|
C|-------------------------------------------------|-------------------------------------------------|
   *  *  *  *  *  *  *  *        *  *  *  *  *  *    *  *  *  *  *  *  *  *
D|-------------------------------------------------|-------------------------------------------------|
A|-------------------------------------------------|-------------------------------------------------|
F|-------------------------------------------------|-------------------------------------------------|
C|-14-14-14-14-14-14-14-14-14-14-14-14-14-14-14-14-|-14-14-14-14-14-14-14-14-14-14-14-14-14-14-14-14-|
G|-------------------------------------------------|-------------------------------------------------|
C|-------------------------------------------------|-------------------------------------------------|
   *  *  *  *  *  *  *  *  *  *  *  *  *  *
D|-------------------------------------------------|-------------------------------------------------|
A|-------------------------------------------------|-------------------------------------------------|
F|-------------------------------------------------|-------------------------------------------------|
C|-15-15-15-15-15-15-15-15-17p15-15-15-15-15-15-15-|-15-15-15-15-15-15-15-15-15-15-15-15-17-17-19-19-|
G|-------------------------------------------------|-------------------------------------------------|
C|-------------------------------------------------|-------------------------------------------------|
   *  *  *  *  *  *  *  *        *  *  *  *  *  *    *  *  *  *  *  *  *  *  *  * 
D|-------------------------------------------------|-------------------------------------------------|
A|-------------------------------------------------|-------------------------------------------------|
F|-------------------------------------------------|-15-15-15-15-15-15-15-15-15-15-17-17-17-17-17-17-|
C|-14-14-14-14-14-14-14-14-14-14-14-14-14-14-14-14-|-------------------------------------------------|
G|-------------------------------------------------|-------------------------------------------------|
C|-------------------------------------------------|-------------------------------------------------|
   *  *  *  *  *  *  *  *  *  *  *  *  *  *  *  * 
D|-------------------------------------------------|-------------------------------------------------|
A|-------------------------------------------------|-------------------------------------------------|
F|-------------------------------------------------|-------------------------------------------------|
C|-15-15-15-15-15-15-15-15-17p15-15-15-15-15-15-15-|-15-15-15-15-15-15-15-15-15-15-15-15-17-17-17-17-|
G|-------------------------------------------------|-------------------------------------------------|
C|-------------------------------------------------|-------------------------------------------------|
   *  *  *  *  *  *  *  *        *  *  *  *  *  *    *  *  *  *  *  *  *  *  *  *  *  * 
D|-------------------------------------------------|-------------------------------------------------|
A|-------------------------------------------------|-------------------------------------------------|
F|-------------------------------------------------|-------------------------------------------------|
C|-14-14-14-14-14-14-14-14-14-14-14-14-14-14-14-14-|-14-14-14-14-14-14-14-14-14s12-12-12-12-12-12-12-|
G|-------------------------------------------------|-------------------------------------------------|
C|-------------------------------------------------|-------------------------------------------------|
   *  *  *  *  *  *  *  *  *  *  *  *  *  *
D|-------------------------------------------------|-------------------------------------------------|
A|-------------------------------------------------|-------------------------------------------------|
F|-------------------------------------------------|-------------------------------------------------|
C|-15-15-15-15-15-15-15-15-17p15-15-15-15-15-15-15-|-15-15-15-15-15-15-15-15-15-15-15-15-17-17-17h19-|
G|-------------------------------------------------|-------------------------------------------------|
C|-------------------------------------------------|-------------------------------------------------|
   *  *  *  *  *  *  *  *        *  *  *  *  *  *    *  *  *  *  *  *  *  *  *  *  *  *
D|-------------------------------------------------|-------------------------------------------------|
A|-------------------------------------------------|-------------------------------------------------|
F|-------------------------------------------------|-15-15-15-15-15-15-15-15-15-15-17-17-17-17-17-17-|
C|-14-14-14-14-14-14-14-14-14-14-14-14-14-14-14-14-|-------------------------------------------------|
G|-------------------------------------------------|-------------------------------------------------|
C|-------------------------------------------------|-------------------------------------------------|
   *  *  *  *  *  *  *  *  *  *  *  *  *  *  *  *
D|-------------------------------------------------|-------------------------------------------------|
A|-------------------------------------------------|-------------------------------------------------|
F|-------------------------------------------------|-------------------------------------------------|
C|-15-15-15-15-15-15-15-15-17p15-15-15-15-15-15-15-|-15-15-15-15-15-15-15-15-17-17-17-17s19-19-19-19-|
G|-------------------------------------------------|-------------------------------------------------|
C|-------------------------------------------------|-------------------------------------------------|
   *  *  *  *  *  *  *  *        *  *  *  *  *  *    *  *  *  *  *  *  *  *     
D|-------------------------------------------------|-------------------------------------------------|
A|-------------------------------------------------|-------------------------------------------------|
F|-------------------------------------------------|-------------------------------------------------|
C|-14-14-14-14-14-14-14-14-14-14-14-14-14-14-14-14-|s12-12-12-12-12-12-12-12-12-12-12-12-12-12-12-12-|
G|-------------------------------------------------|-------------------------------------------------|
C|-------------------------------------------------|-------------------------------------------------|
   *  *  *  *  *  *  *  *

Guitar 4 (w/ dist and delay)

D|-------------------------------------------------|-------------------------------------------------|
A|-------------------------------------------------|-------------------------------------------------|
F|-------------------------------------------------|-------------------------------------------------|
C|-15-15-15-15-15-15-15-15-17p15-15-15-15-15-15-15-|-15-15-15-15-15-15-15-15-15-15-15-15-17-17-17-17-|
G|-------------------------------------------------|-------------------------------------------------|
C|-------------------------------------------------|-------------------------------------------------|
   *  *  *  *  *  *  *  *        *  *  *  *  *  *    *  *  *  *  *  *  *  *  *  *  *  *  
D|-------------------------------------------------|-------------------------------------------------|
A|-------------------------------------------------|-------------------------------------------------|
F|-------------------------------------------------|-15-15-15-15-15-15-15-15-15-15-17-17-17-17-17-17-|
C|-14-14-14-14-14-14-14-14-14-14-14-14-14-14-14-14-|-------------------------------------------------|
G|-------------------------------------------------|-------------------------------------------------|
C|-------------------------------------------------|-------------------------------------------------|
   *  *  *  *  *  *  *  *  *  *  *  *  *  *  *  *
D|-------------------------------------------------|-------------------------------------------------|
A|-------------------------------------------------|-------------------------------------------------|
F|-------------------------------------------------|-------------------------------------------------|
C|-15-15-15-15-15-15-15-15-17p15-15-15-15-15-15-15-|-15-15-15-15-15-15-15-15-15-15-15-15-15-15-15-15-|
G|-------------------------------------------------|-------------------------------------------------|
C|-------------------------------------------------|-------------------------------------------------|
   *  *  *  *  *  *  *  *        *  *  *  *  *  *    *  *  *  *  *  *  *  *  *  *  *  *  *  *  *  *
D|-------------------------------------------------|-------------------------------------------------|
A|-------------------------------------------------|-------------------------------------------------|
F|-------------------------------------------------|-------------------------------------------------|
C|-14-14-14-14-14-14-14-14-14-14-14-14-14-14-14-14-|-14-14-14-14-14-14-14-14-14-14-14-14-14-14-14-14-|
G|-------------------------------------------------|-------------------------------------------------|
C|-------------------------------------------------|-------------------------------------------------|
   *  *  *  *  *  *  *  *  *  *  *  *  *  *
D|-------------------------------------------------|-------------------------------------------------|
A|-------------------------------------------------|-------------------------------------------------|
F|-------------------------------------------------|-------------------------------------------------|
C|-15-15-15-15-15-15-15-15-17p15-15-15-15-15-15-15-|-15-15-15-15-15-15-15-15-15-15-15-15-15-15-15-15-|
G|-------------------------------------------------|-------------------------------------------------|
C|-------------------------------------------------|-------------------------------------------------|
   *  *  *  *  *  *  *  *        *  *  *  *  *  *    *  *  *  *  *  *  *  *  *  *  *  *
D|-------------------------------------------------|-------------------------------------------------|
A|-------------------------------------------------|-------------------------------------------------|
F|-------------------------------------------------|-15-15-15-15-15-15-15-15-15-15-17-17-17-17-17-17-|
C|-14-14-14-14-14-14-14-14-14-14-14-14-14-14-14-14-|-------------------------------------------------|
G|-------------------------------------------------|-------------------------------------------------|
C|-------------------------------------------------|-------------------------------------------------|
   *  *  *  *  *  *  *  *  *  *  *  *  *  *  *  *
D|-------------------------------------------------|-------------------------------------------------|
A|-------------------------------------------------|-------------------------------------------------|
F|-------------------------------------------------|-------------------------------------------------|
C|-15-15-15-15-15-15-15-15-17p15-15-15-15-15-15-15-|-15-15-15-15-15-15-15-15-17-17-17-17-19-19-19-19-|
G|-------------------------------------------------|-------------------------------------------------|
C|-------------------------------------------------|-------------------------------------------------|
   *  *  *  *  *  *  *  *        *  *  *  *  *  *    *  *  *  *  *  *  *  *
D|-------------------------------------------------|-------------------------------------------------|
A|-------------------------------------------------|-------------------------------------------------|
F|-------------------------------------------------|-------------------------------------------------|
C|-14-14-14-14-14-14-14-14-14-14-14-14-14-14-14-14-|-14-14-14-14-14-14-14-14-14s12-12-12-12-12-12-12-|
G|-------------------------------------------------|-------------------------------------------------|
C|-------------------------------------------------|-------------------------------------------------|
   *  *  *  *  *  *  *  *  *  *  *  *  *  * 
D|-------------------------------------------------|-------------------------------------------------|
A|-------------------------------------------------|-------------------------------------------------|
F|-------------------------------------------------|-------------------------------------------------|
C|-15-15-15-15-15-15-15-15-15p17-15-15-15-15-15-15-|-15-15-15-15-15-15-15-15-15-15-15-15-15-15-15-15-|
G|-------------------------------------------------|-------------------------------------------------|
C|-------------------------------------------------|-------------------------------------------------|
   *  *  *  *  *  *  *  *        *  *  *  *  *  *    *  *  *  *  *  *  *  *  *  *  *  *  *  *  *  *
D|-------------------------------------------------|-------------------------------------------------|
A|-------------------------------------------------|-------------------------------------------------|
F|-------------------------------------------------|-15-15-15-15-15-15-15-15-15-15-17-17-17-17-17-17-|
C|-14-14-14-14-14-14-14-14-14-14-14-14-14-14-14-14-|-------------------------------------------------|
G|-------------------------------------------------|-------------------------------------------------|
C|-------------------------------------------------|-------------------------------------------------|
   *  *  *  *  *  *  *  *  *  *  *  *  *  *  *  *
D|-------------------------------------------------|-------------------------------------------------|
A|-------------------------------------------------|-------------------------------------------------|
F|-------------------------------------------------|-------------------------------------------------|
C|-15-15-15-15-15-15-15-15-17p15-15-15-15-15-15-15-|-15-15-15-15-15-15-15-15-17-17-17-17s19-19-19-19-|
G|-------------------------------------------------|-------------------------------------------------|
C|-------------------------------------------------|-------------------------------------------------|
   *  *  *  *  *  *  *  *        *  *  *  *  *  *    *  *  *  *  *  *  *  *
D|-------------------------------------------------|-------------------------------------------------|
A|-------------------------------------------------|-------------------------------------------------|
F|-------------------------------------------------|-------------------------------------------------|
C|-14-14-14-14-14-14-14-14-14-14-14-14-14-14-14-14-|-15-15-15-15-15-15-15-15-15-15-15-15-15-15-15-15-|
G|-------------------------------------------------|-------------------------------------------------|
C|-------------------------------------------------|-------------------------------------------------|
   *  *  *  *  *  *  *  *  *  *  *  *  *  *  *  *

-----------------------------------------------------------------------------------------
                                    CHORUS (01:10-01:25)
-----------------------------------------------------------------------------------------
                                        same as INTRO
-----------------------------------------------------------------------------------------
                                    VERSE 2 (01:25-02:09)
-----------------------------------------------------------------------------------------
                                        same as VERSE
-----------------------------------------------------------------------------------------
                                    CHORUS 2 (02:09-02:24)
-----------------------------------------------------------------------------------------
                                        same as INTRO
-----------------------------------------------------------------------------------------
                                     BRIDGE (02:24-02:56)
-----------------------------------------------------------------------------------------

Guitars 1 and 2 (w/ dist)
                                                     V V V V V V
D|------------------------------|--------------------x--------------|
A|------------------------------|----------------------x------------|
F|------------------------------|------------------------x----------|
C|------------------------------|--------------------------x--------|
G|-------0----------------------|-------0--------------------x------|
C|-0-0-0-0--0-0-0-3s2~~2s1-1p0~~|-0-0-0-0--0-0-0-1s------------x----|
   * * *    * * *                 * * *    * * * slide downwards, then sweep muted strings  

D|------------------------------|--------------------------------|
A|------------------------------|--------------------------------|
F|------------------------------|--------------------------------|
C|------------------------------|--------------------------------|
G|-------0----------------------|-------0------------------------|
C|-0-0-0-0--0-0-0-3s2~~2s1-1p0~~|-0-0-0-0--0-0-0-1-1-1-1-1-1-1-1-|
   * * *    * * *                 * * *    * * *
                                                     V V V V V V
D|------------------------------|--------------------x--------------|
A|------------------------------|----------------------x------------|
F|------------------------------|------------------------x----------|
C|------------------------------|--------------------------x--------|
G|-------0----------------------|-------0--------------------x------|
C|-0-0-0-0--0-0-0-3s2~~2s1-1p0~~|-0-0-0-0--0-0-0-1s------------x----|
   * * *    * * *                 * * *    * * * 

D|------------------------------|----------------------|
A|------------------------------|----------------------|
F|------------------------------|----------------------|
C|------------------------------|----------------------|
G|-------0----------------------|-------0--------5b----|
C|-0-0-0-0--0-0-0-3s2~~2s1-1p0~~|-0-0-0-0--0-0-0-------|
   * * *    * * *                 * * *    * * * +

   П V П V П V П V П V П V П V П V   
D|---------------------------------|
A|---------------------------------|
F|---------------------------------|
C|---------------------------------|
G|---------------------------------|
C|-0-0-0-0-0-0-0-0-0-0-0-0-0-0-0-0-|
   * * *   * * * * * * *   * * * * 
                                                     V V V V V V  
D|------------------------------|--------------------x--------------|
A|------------------------------|----------------------x------------|
F|------------------------------|------------------------x----------|
C|------------------------------|--------------------------x--------|
G|-------0----------------------|-------0--------------------x------|\
C|-0-0-0-0--0-0-0-3s2~~2s1-1p0~~|-0-0-0-0--0-0-0-1s------------x----| \
   * * *    * * *                 * * *    * * *                       x2
D|------------------------------|--------------------------------|    /
A|------------------------------|--------------------------------|   /
F|------------------------------|--------------------------------|  /
C|------------------------------|--------------------------------| /
G|-------0----------------------|-------0------------------------|/
C|-0-0-0-0--0-0-0-3s2~~2s1-1p0~~|-0-0-0-0--0-0-0-1-1-1-1-1-1-1-1-|
   * * *    * * *                 * * *    * * *

-----------------------------------------------------------------------------------------
                                    BRIDGE 2 (02:56-03:33)
-----------------------------------------------------------------------------------------

I. Guitar 1 (w/ dist) - 4 bars empty

   Guitar 2 (w/ dist)

D|---------------------------------|---------------------------------|
A|---------------------------------|---------------------------------|
F|---------------------------------|---------------------------------|
C|---------------------------------|---------------------------------|
G|-0-0-0---0-0-0---0-0-0---0-0-0---|-0-0-0---0-0-0---0-0-0---0-0-0---|
C|-0-0-0---0-0-0---2-2-2---3-3-3---|-3-3-3---0-0-0---0-0-0---0-0-0---|
   * * *   * * *   * * *   * * *     * * *   * * *   * * *   * * *

D|-----------------------------|---------------------------------|
A|-----------------------------|---------------------------------|
F|-----------------------------|---------------------------------|
C|-----------------------------|---------------------------------|
G|-0-------0-------0-------0---|----0-------0-------0------------|
C|-1-------1-------1------s7~~~|~~~~7~~~~~~~7~~~~~~~7------------|

II. Guitars 1 and 2 (w/ dist)
                                                                                                  -------|
D|-------------------------------------------------|-------------------------------------------------|   |
A|-------------------------------------------------|-------------------------------------------------|   |
F|-------------------------------------------------|-------------------------------------------------|   |
C|-------------------------------------------------|-------------------------------------------------|   |
G|-------------------------------------------------|-------------------------------------------------|   |
C|-0-0-0-0-0-0-0-0-0-0-0-0-3-3-3-3-3-3-2-2-2-2-2-2-|-2-2-2-2-2-2-0-0-0-0-0-0-0-0-0-0-0-0-0-0-0-0-0-0-|   |
                                                                                                         |
D|-------------------------------------------------|-------------------------------------------------|   |
A|-------------------------------------------------|-------------------------------------------------|   |
F|-------------------------------------------------|-------------------------------------------------|   |
C|-------------------------------------------------|-------------------------------------------------|   |
G|-------------------------------------------------|-------------------------------------------------|   |
C|-1-1-1-1-1-1-1-1-1-1-1-1-1-1-1-1-1-1s7-7-7-7-7-7-|-7-7-7-7-7-7-7-7-7-7-7-7-7-7-7-8-8-8-8-8-8-8-8-8-|   |
                                                                                                         | x2
D|-------------------------------------------------|-------------------------------------------------|   |
A|-------------------------------------------------|-------------------------------------------------|   |
F|-------------------------------------------------|-------------------------------------------------|   |
C|-------------------------------------------------|-------------------------------------------------|   |
G|-------------------------------------------------|-------------------------------------------------|   |
C|-0-0-0-0-0-0-0-0-0-0-0-0-3-3-3-3-3-3-2-2-2-2-2-2-|-2-2-2-2-2-2-0-0-0-0-0-0-0-0-0-0-0-0-0-0-0-0-0-0-|   |
                                                                                                         |
D|-------------------------------------------------|-------------------------------------------------|   |
A|-------------------------------------------------|-------------------------------------------------|   |
F|-------------------------------------------------|-------------------------------------------------|   | 
C|-------------------------------------------------|-------------------------------------------------|   | 
G|-------------------------------------------------|-------------------------------------------------|   |
C|-1-1-1-1-1-1-1-1-1-1-1-1-1-1-1-1-1-1-3-3-3-3-3-3-|-3-3-3-3-3-3-3-3-3-3-3-3-3-3-3-3-3-3-1-1-1-1-1-1-|   |
                                                                                                  -------|

-----------------------------------------------------------------------------------------
                                     OUTRO (03:33-04:17)
-----------------------------------------------------------------------------------------

Guitars 1 and 2 (w/ dist)

   П V П V П V П V П V П V П V П V         П V П V П V П V П V П V П V П V 
D|---------------------------------|     |---------------------------------|
A|---------------------------------|     |---------------------------------|
F|---------------------------------| x3  |---------------------------------|
C|---------------------------------|     |---------------------------------|
G|---------------------------------|     |---------------------------------|
C|-0-0-0-0-0-0-0-0-0-0-0-0-0-0-0-0-|     |-0-0-0-0-0-0-0-0-0-0-0-0-0-0-0-0-|
   * * *   * * * * * * *   * * * *         * * *   * * * * * * *   *   * 

   П V П V П V П V П V П V П V П V         П V П V П V П V П V П V 
D|---------------------------------|     |---------------------------------|
A|---------------------------------|     |---------------------------------|
F|---------------------------------| x3  |---------------------------------|
C|---------------------------------|     |---------------------------------|
G|---------------------------------|     |---------------------------------|
C|-0-0-0-0-0-0-0-0-0-0-0-0-0-0-0-0-|     |-0-0-0-0-0-0-0-0-0-0-0-0---------|
   * * *   * * * * * * *   * * * *         * * *   * * * * * * * 

************************************
                   
| *   palm mute
| П   pick downstroke
| V   pick upstroke
| s   slide
| h   hammer-on
| p   pull-off
| ~   vibrato
| +   pinch harmonic
| x   Mute note
| b   Bend

************************************
Suggest correction
comments
print report bad tab
guest
You may want to rate the tab now too:
select rating
Wanna post a correction for this tab? Suggest correction