Oops, an error
Loading. Please wait.

Ocean Planet tab

version 1
version 1

Whole song

Interactive

by Gojira
23,715 views 63 this week
14 commentsread comments
1 2 3 4 5
x 9
add to favorites
×
Save as Personal and add changes to this tab that will be seen only by you. Learn more ›
×
You can save this tab as Personal to edit and correct it or add notes. All changes will be seen only by you. Learn more »
launch autoscroll
font size
0
reset
how to read this tab
guitar tuner
backing track
0:00
0:00
edit
Autoscroll
slow
fast
+/-
esc
set tempo
stop
Author
Difficulty
intermediate
e|-------------------------------------------------------------------------------|
B|-------------------------------------------------------------------------------|
G|----------------------------------2----2----2----2-----2----2------------------|
D|----------------------------------0----0----0----0-----0----0------------------|
A|-------------------------------------------------------------------------------|
E|--3-3-3-3-2-2-1-1-0--3b--3-2-0--3----3----3----2----2-----2----3-3-3-3-2-2-1---|
 PM----------------  A.H -----                               PM----------------|
-------------------------------------------------------------------------------|

e|-------------------------------------------------------------------------------|
B|-------------------------------------------------------------------------------|
G|-------------------2---2-----2-----2-------------------------------------------|
D|-------------------0---0-----0-----0-------------------------------------------|
A|-------------------------------------------------------------------------------|
E|-1-0--3b-3-2-0--3----3----3-----2-----2---------3-3-3-3-2-2-1-1-0--3b--3-2-1---|
   ---- AH -----                                  -----------------      --------|

e|-------------------------------------------------------------------------------|
B|-------------------------------------------------------------------------------|
G|-----2-----2-----2-----2----2----2----------------------------------2----2-----|
D|-----0-----0-----0-----0----0----0----------------------------------0----0-----|
A|-------------------------------------------------------------------------------|
E|--3-----3-----3-----2----2----2-----3-3-3-3-2-2-1-1-0--3b--3-2-1--3----3-------|
                                    -------------------------------------------| A.H

e|--------------------------------------------------------------------------------|
B|--------------------------------------------------------------------------------|
G|---2---2---2---2----------------------------------------------------------2-----|
D|---0---0---0---0----------------------------------------------------------0-----|
A|-------------------4--4-4---4-4---4--4-4----------------------------------------|
E|-3---2---2---2-----0--0-0---0-0---0--0-0--3-3-3-3-2-2-1-1-0--3b--3-2-0--3---3---|
                                          ----------------- A.H  ---------------|

e|-------------------------------------------------------------------------------|
B|-------------------------------------------------------------------------------|
G|-2----2----2-----2-----2----------------------------------2----2----2----2-----|
D|-0----0----0-----0-----0----------------------------------0----0----0----0-----|
A|--------------------------3-3-3-3-2-2-1-1-0------3-2-0-------------------------|
E|----3----2----2-----2-----3-3-3-3-2-2-1-1-0--3b--3-2-0--3---3-----3----2---2---|
                          ----------------- A.H  ------------------------------|

e|-------------------------------------------------------------------------------|
B|-------------------------------------------------------------------------------|
G|-2-----2----------------------------------2---2---2---2---2b4r2----------------|
D|-0-----0----------------------------------0---0---0---0------------------------|
A|----------3-3-3-3-2-2-1-1-0------3-2-0---------------------------3-3-3-3-2-2---|
E|----2-----3-3-3-3-2-2-1-1-0--3b--3-2-0--3---3---3---2---2--------3-3-3-3-2-2---|
          -----------------  A.H -----                           --------------|

e|--------------------------------------------------------------------------|----|
B|--------------------------------------------------------------------------|----|
G|---------------------2----2----2----2-----2----2--------------------------|----|
D|---------------------0----0----0----0-----0----0--------------------------|----|
A|---------------------------------------------------4--4-4--4-4--4-4-4-----|----|
E|-1-1-0--3b--3-2-1--3---3----3-----2----2----2------0--0-0--0-0--0-0-0-----|----|
 -----  A.H -------------------------------------------------------------------|

e|-----------------------------------------------------------------------------|
B|-----------------------------------------------------------------------------|
G|-----------------------------------------------------------------------------|
D|-----------------------------------------------------------------------------|
A|--4--4-4--4-4--4--4-4--4--4-4--4-4--4--4-4-------4--4-4--4-4--4--4-4---------|
E|--0--0-0--0-0--0--0-0--0--0-0--0-0--0--0-0--17/--0--0-0--0-0--0--0-0--0-0-0--|
                                                                    PM-----

e|-----------------------------------------------------------------------------|
B|-----------------------------------------------------------------------------|
G|-------------------6-6-6-6-6-------------------------------------------------|
D|-3-------3---3-3---5-5-5-5-5--5--5-5--5-5--5--5-5--5--5-5--5-5--5--5-5-------|
A|-1-------1---1-1---4-4-4-4-4--4--4-4--4-4--4--4-4--4--4-4--4-4--4--4-4-------|
E|-0-0-0-0-0-0-0-0-0------------0--0-0--0-0--0--0-0--0--0-0--0-0--0--0-0--0-0--|
   -----   -     -                                                      -----|

e|-------------------------------------------------------------------|-----------|
B|-------------------------------------------------------------------|-----------|
G|---------------------6-6-6-6-6-------------------------------------|-----------|
D|---3-------3---3-3---5-5-5-5-5-------------------------------------|-----------|
A|---1-------1---1-1---4-4-4-4-4--4--4-4--4-4------------------------|-----------|
E|-0-0-0-0-0-0-0-0-0-0------------0--0-0--0-0--0-0-0-0-0-0-0-0-0-0---|-----------|
 -   -----   -     ------------------------------------------------------------|

e|-------------------------------------------------------------------------------|
B|-------------------------------------------------------------------------------|
G|-----------------------------------------------------------------------------|
D|----------------------6------------------------------------------------------|
A|----------------------4------------------4-4-4-4-4-4-4-4-4-4-4-4-4-4-4-4-4---|
E|--0-0-0-0-0-0-0-0-0-0-4-0-1-0-3b--0-2-3--------------------------------------|
                        ----- A.H ---------------------------------------------|

e|-------------------------------------------------------------------------------|
B|-------------------------------------------------------------------------------|
G|-------------------------------------------------------------------------------|
D|-------------6---5---------------------------------------------6---------------|
A|-4-4-4-4-4---4---3--4-4-4-4-4-4-4-4-4-4-4-4-4-4-4-4-4-4-4-4-4--4---------------|
E|-------------4-0-3---------------------------------------------4-0-0-0---------|
               -                                                 --------------|

e|-----------------------------------------------------------------------------|
B|-----------------------------------------------------------------------------|
G|-----------------------------------------------------------------------------|
D|-----------------------------------------------------------------------------|
A|-----------4-4-4-4-4-4-4-4-4-4-4-4-4-4-4-4-4-4-4-4-4-4--3-3-3--3-3-3--3-3-3 -|
E|-3b-0-0-0--------------------------------------------------------------------|
 A.H-----

e|---------------------------------------------------------------|-------------|
B|---------------------------------------------------------------|-------------|
G|---------------------------------------------------------------|-------------|
D|---------------------------------------------------------3-----|-------------|
A|-3-3-3--3-3-3--3-3-3--3-3-3--3-3-3--3-3-3--3-3-3--3-3-3--3-----|-------------|
E|---------------------------------------------------------1-----|-------------|

e|-----------------------------------------------------------------------------|
B|-----------------------------------------------------------------------------|
G|--2-2-2-2--2-2-2-2--2-2-2-2--2-2-1-1----2-2-2-2--2-2-2-2--2-2-2-2--2-2-1-1---|
D|--0-0-0-0--0-0-0-0--0-0-0-0--0-0-0-0----0-0-0-0--0-0-0-0--0-0-0-0--0-0-0-0---|
A|--x-x-x-x--x-x-x-x--x-x-x-x--0-0-0-0----x-x-x-x--x-x-x-x--x-x-x-x--0-0-0-0---|
E|--3-3-3-3--2-2-2-2--1-1-1-1--0-0-0-0----3-3-3-3--2-2-2-2--1-1-1-1--0-0-0-0---|

e|---|-------------------------------x/--------------------------------x/|-|
B|---|-------------------------------x/--------------------------------x/|-|
G|---|-------------------------------x/--------------------------------x/|-|
D|---|-------------------------------x/--------------------------------x/|-|
A|---|-------------------------------x/--------------------------------x/|-|
E|---|-333-222-111-0--3b--333-222-000----333-222-111-0--3b-333-222-000-----|
      --------------     --------  A.H-----------------------------------|



************************************

| b   Bend
| r   Release
| /   Slide up
| PM  Palm mute
| x   Dead note
|     
| A.H 
| PM  
| x/  

************************************

            
            
Suggest correction
Creating personal tab
Creating personal tab
You can edit any tab online and save it as your Personal.

You can edit, replace or remove any tab part or add personal notes – all changes will be seen only by you.

Personal tabs can be accessed anytime from any device, even offline.
Learn more »
comments
print report bad tab
14 comments total. Showing first comments.
0 reply
seokorn 353 Apr 24, 2007 09:21 PM

what tuning is this in?

0 reply
Trivium_A7X 82 Apr 30, 2007 08:12 AM

Its in D, very good tab! thanks!

0 reply
joey109 31 May 03, 2007 10:07 AM

nice tab

guest
You may want to rate the tab now too:
select rating
Wanna post a correction for this tab? Suggest correction