Oops, an error
Loading. Please wait.

Over The Flows Tab

1,245 views 3 this week
3 commentsread comments
1 2 3 4 5
2 more votes to show rating
add to favorites
launch autoscroll
font size
0
reset
how to read this tab
guitar tuner
Autoscroll
slow
fast
+/-
esc
set tempo
stop
Help us to improve Ultimate-Guitar.com Take our survey!
×
Difficulty
Tuning
intermediate
D G C F A D
Gojira
Over the flows
The link

tuning:DGCFAD (tune a whole step down)

intro & verses:
--------                ----------------|
-----10-                -------10-------|
-------- play once      -----11--  play-| 15 times
-9-10---                -9-10-----------|
--------                ----------------|
--------                ----------------|

PM------                PM-------

choruses:
----------------------|
----------------------|
--------55555555------|
-2-2-2--33333333------|   4X(0n the third chorus play 8X)
-2-2-2--33333333------|
-0-0-0----------------|

Bridge:(play the intro once again)

Outro:
---------                 --------|
------10-                 -----10-|
---11----                 --11----|
-10--10-- 4X then....     -9--9---|  4X
---------                 --------|
---------                 --------|

play the whole outro 4 times.

End on:
----
--10
--11
--10   let ring!!!!!!!
----
----

this is 99% correct i play it with the record and it sounds perfect.
thanx!!!!!!!!!
Suggest correction
Give kudos to tab author, rate the tab!
1 2 3 4 5
comments
print report bad tab
3 comments total.
0 reply
FacedJared 37 Feb 08, 2011 10:21 PM

 


outro more like this imo

Outro:
---------- ----------|
-------10- -------10-|
----11---- ---11-----|
9-10--10-- 4X then.... -10--10---|3X
---------- ----------|then on
---------- ----------|4th time

-----------
-----------
---11------
-10--10-12-
-----------
-----------

0 reply
FacedJared 37 Feb 08, 2011 10:22 PM

oops, here you go

outro more like this imo

Outro:
---------- ----------|
-------10- -------10-|
----11---- ---11-----|
9-10--10-- -10--10---|3X
---------- ----------|then on
---------- ----------|4th time

-----------
-----------
---11------
-10--10-12-
-----------

0 reply
FacedJared 37 Feb 08, 2011 10:23 PM

LOL Screwd up on both.

HEres the real one

outro more like this imo

Outro:
---------- ----------|
-------10- -------10-|
----11---- ---11-----|
9-10------ -10--10---|3X
---------- ----------|then on
---------- ----------|4th time

-----------
-----------
---11------
-10--10-12-
-----------
-----------

guest
You may want to rate the tab now too:
select rating
Wanna post a correction for this tab? Suggest correction