Oops, an error
Loading. Please wait.

Satan Is A Lawyer Tab

version 2
version 2

Whole song

Interactive

4,270 views 6 this week
2 commentsread comments
1 2 3 4 5
accurate
x 4
add to favorites
launch autoscroll
font size
0
reset
how to read this tab
guitar tuner
Autoscroll
slow
fast
+/-
esc
set tempo
stop
Help us to improve Ultimate-Guitar.com Take our survey!
×
Author
Difficulty
intermediate
Author/Artist: Gojira
Title: Satan is a lawyer
Album: Terra Incognita
Transcribed by: Jaymz88
DGCFAD
The intro isn't very good but I can't figure it out

----------------------------------------------------------------------------|
----------------------------------------------------------------------------|
----------------------------------------------------------------------------|
-12--12--11--11-11-11--8---9--9--4---9---5--5--4--4-4-4--3--4--4-5--5-5-5---|
-10--10---9---9--9--9--6---7--7--2---7---3--3--2--2-2-2--1--2--2-5--3-3-3---|
-10--10---9---9--9--9--6---7--7--2---7---3--3--2--2-2-2--1--2--2-3--3-3-3---|


---------|------------------------------------------------------------------|
---------|------------------------------------------------------------------|
---------|------------------------------------------------------------------|
-5/4-----|------------------------------------------------------------------|
-3/2-----|------------------------------------------------------------------|
-3/2-----|------------------------------------------------------------------|


----------------------------------------------------------------------------|
----------------------------------------------------------------------------|
------------------4--6--6--6--5--5--------------------4--6--6--6--6--5--5---|
--2----4----5/----x--x--x--x--x--x----2----4----5/----x--x--x--x--x--x--x---|
--2----2----3/----2--4--4--4--3--3----2----2----3/----2--4--4--4--4--3--3---|
--0----2----3/------------------------0----2----3/--------------------------|


-----------------------------------------------------------------------------|
-----------------------------------------------------------------------------|
-----------------4--6--6--6--5--5--------------------------------------------|
-2----4----5/----x--x--x--x--x--x----2----4----5/----------------------------|
-2----2----3/----2--4--4--4--3--3----2----2----3/----2-2-2--2--2--2--2--2--2-|
-0----2----3/------------------------0----2----3/----0-0-0--0--0--0--0--0--0-|
                                                    PM- - -  -  -  -  -  -  -

----------------------------------------------------------------------------|
----------------------------------------------------------------------------|
------------------4--6--6--6--5--5--------------------4--6--6--6--5--5------|
--2----4----5/----x--x--x--x--x--x----2----4----5/----x--x--x--x--x--x------|
--2----2----3/----2--4--4--4--3--3----2----2----3/----2--4--4--4--3--3------|
--0----2----3/------------------------0----2----3/--------------------------|


----------------------------------------------------------------------------|
----------------------------------------------------------------------------|
------------------4--6--6--6--5--5------------------------------------------|
--2----4----5/----x--x--x--x--x--x----2----4----5---------------------------|
--2----2----3/----2--4--4--4--3--3----2----2----3---------------------------|
--0----2----3/------------------------0----2----3---------------------------|


----------------------------------------------------------------------------|
----------------------------------------------------------------------------|
----------------------------------------------------------------------------|
-12--12--11--11-11-11--8---9--9--4---9---5--5--4--4-4-4--3--4--4-5--5-5-5---|
-10--10---9---9--9--9--6---7--7--2---7---3--3--2--2-2-2--1--2--2-5--3-3-3---|
-10--10---9---9--9--9--6---7--7--2---7---3--3--2--2-2-2--1--2--2-3--3-3-3---|


---------|------------------------------------------------------------------|
---------|------------------------------------------------------------------|
---------|------------------------------------------------------------------|
-5/4-----|------------------------------------------------------------------|
-3/2-----|------------------------------------------------------------------|
-3/2-----|------------------------------------------------------------------|


----------------------------------------------------------------------------|
----------------------------------------------------------------------------|
------------------4--6--6--6--5--5--------------------4--6--6--6--6--5--5---|
--2----4----5/----x--x--x--x--x--x----2----4----5/----x--x--x--x--x--x--x---|
--2----2----3/----2--4--4--4--3--3----2----2----3/----2--4--4--4--4--3--3---|
--0----2----3/------------------------0----2----3/--------------------------|


-----------------------------------------------------------------------------|
-----------------------------------------------------------------------------|
-----------------4--6--6--6--5--5--------------------------------------------|
-2----4----5/----x--x--x--x--x--x----2----4----5/----------------------------|
-2----2----3/----2--4--4--4--3--3----2----2----3/----2-2-2--2--2--2--2--2--2-|
-0----2----3/------------------------0----2----3/----0-0-0--0--0--0--0--0--0-|
                                                    PM- - -  -  -  -  -  -  -

----------------------------------------------------------------------------|
----------------------------------------------------------------------------|
------------------4--6--6--6--5--5--------------------4--6--6--6--5--5------|
--2----4----5/----x--x--x--x--x--x----2----4----5/----x--x--x--x--x--x------|
--2----2----3/----2--4--4--4--3--3----2----2----3/----2--4--4--4--3--3------|
--0----2----3/------------------------0----2----3/--------------------------|

----------------------------------------------------------------------------|
----------------------------------------------------------------------------|
------------------4--6--6--6--5--5------------------------------------------|
--2----4----5/----x--x--x--x--x--x----2----4----5---------------------------|
--2----2----3/----2--4--4--4--3--3----2----2----3---------------------------|
--0----2----3/------------------------0----2----3-----0--2--2--2--1--0------|


----------------------------------------------------------------------------|
----------------------------------------------------------------------------|
----------------------------------------------------------------------------|
-----------------------------------3----------------------------------------|
-----------------------------------1----------------------------------------|
-----------------------------------1----------------------------------------|


----------------------------------------------------------------------------|
----------------------------------------------------------------------------|
----------------------------------------------------------------x4----------|
----------------------------------------------------------------------------|
--------6-6-6--9-9-9-6-6-6-3-3-3--9-9-9--6-6-6--9-9-9-----------------------|
--0-0-0---------------------------------------------------------------------|
 PM - - - - -  - - - - - - - - -  - - -  - - -  - - -

---------------------------------------------------------------------------|
---------------------------------------------------------------------------|
---------------------------------------------------------------------------|
------------------------------------------------------------------x4-------|
--------7-7-7-10-10-10-7-7-7-4-4-4--10-10-10--7-7-7--10-10-10--------------|
--0-0-0--------------------------------------------------------------------|
  - - - - - -  -  -  - - - - - - -   -  -  -  - - -   -  -  -

----------------------------------------------------------------------------|
----------------------------------------------------------------------------|
---------------4---------------------4--4--4----------------4---------------|
---------3--2------------3--2--3--2-------------------3--2------------3--2--|
--0-0-0-----------0-0-0-------------------------0-0-0----------0-0-0--------|
--0-0-0-----------0-0-0-------------------------0-0-0----------0-0-0--------|
  - - -  -  -     - - -  -  -  -  -             - - - -  -     - - -  -  -

----------------------------------------------------------------------------|
----------------------------------------------------------------------------|
-------4--4--4----------------5---------------------5--5--5---------------5-|
-3--2-------------------4--3------------4--3--4--3------------------4--3----|
-----------------0-0-0------------0-0-0-----------------------0-0-0---------|
-----------------0-0-0------------0-0-0-----------------------0-0-0---------|
 -  -            - - -  -  -      - - - -  -  -  -            - - - -  -

----------------------------------|-----------------------------------------|
----------------------------------|-----------------------------------------|
---------------------5--5--5------|-----------------------------------------|
---------4--3--4--3---------------|-----------------------------------------|
--0-0-0---------------------------|-----------------------------------------|
--0-0-0---------------------------|-----------------------------------------|
  - - -  -  -  -  -

Pendant le chant
-----------------------------------------------------------------------------|
-----------------------------------------------------------------------------|
--------------4--------------------4--4--4---------------5-------------------|
--------3--2-----------3--2--3--2------------------4--3-----------4--3--4--3-|
-0-0-0-----------0-0-0-----------------------0-0-0----------0-0-0------------|
-0-0-0-----------0-0-0-----------------------0-0-0----------0-0-0------------|
 - - -  -  -     - - - -  -  -  -            - - - -  -     - - - -  -  -  -

--------------|-------------------------------------------------------------|
--------------|-------------------------------------------------------------|
--5--5--5-----|-------------------------------------------------------------|
--------------|--4-------------------------------4--------------------------|
--------------|--3---1-1-1--2-2-2--3-3-3--2-2-2--3--------------------------|
--------------|--2---1-1-1--2-2-2--3-3-3--2-2-2--2--------------------------|
                     - - -  - - -  - - -         ah ah ah...
Suggest correction
comments
print report bad tab
2 comments total.
0 reply
blackenedktulu 82 wrote on October 1 2008, 01:58 pm

Almost Perfect, there are bits in the chorus (heavy bits) that harmonise, but they're easy to make out. Decent tab!

+1 reply
Psylosiben 10 wrote on February 16 2009, 11:51 am

I think that you nailed the intro with much zeal, its perfect, as for the rest it sounds perfect as well.

guest
You may want to rate the tab now too:
select rating
Please do not post tabs as comments. Select "correction" instead!