Oops, an error
Loading. Please wait.

The Art Of Dying Tab

version 1
version 1

Whole song

Interactive

22,349 views 117 this week
8 commentsread comments
1 2 3 4 5
excellent!
x 5
add to favorites
launch autoscroll
font size
0
reset
how to read this tab
guitar tuner
Tab Pro tools
  • play this tab
  • loop segment
  • change instrument
  • show fretboard
  • metronome
×
Best way to learn
"The Art Of Dying"
Autoscroll
slow
fast
+/-
esc
set tempo
stop
Contributor
Difficulty
intermediate
#----------------------------------PLEASE NOTE--------------------------------#
#This file is the author's own work and represents their interpretation of the#
#song. You may only use this file for private study, scholarship, or research.#
#-----------------------------------------------------------------------------#
#-- File created with Instab - http://www.pconline.com/~smcarey/instab.html --#
#-----------------------------------------------------------------------------#

Author/Artist: Gojira
Title: The Art Of Dying
Album: The Way Of All Flesh
Transcribed by: Jaymz88
TUNNING: CGCD#GC
Look at the tune. It's not the usual Gojira Tune. It's between Drop C and C standard...

-||--------------------------|-------------------------||---------------------|
-||--------------------------|-------------------------||---------------------|
-||--------------------------|-------------------------||---------------------|
-||--------------------------|-------------------------||---------------------|
-||--------------------------|-------------------------||---------------------|
-||--0-0-0-0-0-0-0-0-0-0-0-0-|-0-0-0-0-0-0-0-0-0-0-0-0-||---------------------|
   PM- - - - - - - - - - - -   - - - - - - - - - - - -

-||--------------------------|--------------------------||--------------------|
-||--------------------------|--------------------------||--------------------|
-||--------------------------|--------------------------||--------------------|
-||--------------------------|--------------------------||--------------------|
-||--------------------------|--------------------------||--------------------|
-||--x-x-x-x-x-x-x-x-x-x-x-x-|-x-x-x-x-x-x-x-x-x-x-x-x--||--------------------|
 N.H - - - - - - - - - - - -   - - - - - - - - - - -

Laisser glisser le main gauche entre la 3eme et la 7eme fret de facon a faire des harmoniques.

-||--------------------------|-------------------------|------------||--------|
-||--------------------------|-------------------------|------------||--------|
-||--------------------------|-------------------------|------------||--------|
-||--------------------------|-------------------------|------------||--------|
-||--------------------------|-------------------------|------------||--------|
-||--0-0-0-0-0-0-0-0-0-0-0-0-|-0-0-0-0-0-0-0-0-0-0-0-0-|--/12b14r12-||--------|
   PM- - - - - - - - - - - -   - - - - - - - - - - - -

-||----------------------------------------------|----------------------------|
-||----------------------------------------------|----------------------------|
-||----------------------------------------------|----------------------------|
-||----------------------------------------------|----------------------------|
-||-0--------------------------------------------|-0--------------------------|
-||-0---1--1--1--1--1--1--1--1--1--1--1--1--1--1-|-0--1--1--1--1--1--1--0--1--|
   PM                                              -
(Tremolo Picking)

------------------||x2--------------------------------------------------------|
------------------||----------------------------------------------------------|
------------------||----------------------------------------------------------|
------------------||----------------------------------------------------------|
------------------||----------------------------------------------------------|
--0----0--0--0--0-||----------------------------------------------------------|


-||----------------------------------------------|----------------------------|
-||----------------------------------------------|----------------------------|
-||----------------------------------------------|----------------------------|
-||----------------------------------------------|----------------------------|
-||-0--------------------------------------------|-0--------------------------|
-||-0---8--8--8--8--8--8--8--8--8--8--7--7--5--5-|-0---8--8--8--8--8--8--7----|
  PM-                                              -

---------------------------||x2-----------------------------------------------|
---------------------------||-------------------------------------------------|
---------------------------||-------------------------------------------------|
---------------------------||-------------------------------------------------|
---------------------------||-------------------------------------------------|
-8--10--10--10--12--12--12-||-------------------------------------------------|

-||----------------------------------------------|----------------------------|
-||----------------------------------------------|----------------------------|
-||----------------------------------------------|----------------------------|
-||----------------------------------------------|----------------------------|
-||-0--------------------------------------------|-0--------------------------|
-||-0---1--1--1--1--1--1--1--1--1--1--1--1--1--1-|-0--1--1--1--1--1--1--0--1--|
   PM                                              -

------------------||x2--------------------------------------------------------|
------------------||----------------------------------------------------------|
------------------||----------------------------------------------------------|
------------------||----------------------------------------------------------|
------------------||----------------------------------------------------------|
--0----0--0--0--0-||----------------------------------------------------------|


-||----------------------------------------------|----------------------------|
-||----------------------------------------------|----------------------------|
-||----------------------------------------------|----------------------------|
-||----------------------------------------------|----------------------------|
-||-0--------------------------------------------|-0--------------------------|
-||-0---8--8--8--8--8--8--8--8--8--8--7--7--5--5-|-0---8--8--8--8--8--8--7----|
  PM-                                              -

---------------------------||x2-----------------------------------------------|
---------------------------||-------------------------------------------------|
---------------------------||-------------------------------------------------|
---------------------------||-------------------------------------------------|
---------------------------||-------------------------------------------------|
-8--10--10--10--12--12--12-||-------------------------------------------------|

-||--------------------------|-------------------------||---------------------|
-||--------------------------|-------------------------||---------------------|
-||--------------------------|-------------------------||---------------------|
-||--------------------------|-------------------------||---------------------|
-||--------------------------|-------------------------||---------------------|
-||--0-0-0-0-0-0-0-0-0-0-0-0-|-0-0-0-0-0-0-0-0-0-0-0-0-||---------------------|
   PM- - - - - - - - - - - -   - - - - - - - - - - - -

-||----------------------------------------------|----------------------------|
-||----------------------------------------------|----------------------------|
-||----------------------------------------------|----------------------------|
-||----------------------------------------------|----------------------------|
-||-0--------------------------------------------|-0--------------------------|
-||-0---1--1--1--1--1--1--1--1--1--1--1--1--1--1-|-0--1--1--1--1--1--1--0--1--|
   PM                                              -

------------------||x2--------------------------------------------------------|
------------------||----------------------------------------------------------|
------------------||----------------------------------------------------------|
------------------||----------------------------------------------------------|
------------------||----------------------------------------------------------|
--0----0--0--0--0-||----------------------------------------------------------|


-||----------------------------------------------|----------------------------|
-||----------------------------------------------|----------------------------|
-||----------------------------------------------|----------------------------|
-||----------------------------------------------|----------------------------|
-||-0--------------------------------------------|-0--------------------------|
-||-0---8--8--8--8--8--8--8--8--8--8--7--7--5--5-|-0---8--8--8--8--8--8--7----|
  PM-                                              -

---------------------------||x2-----------------------------------------------|
---------------------------||-------------------------------------------------|
---------------------------||-------------------------------------------------|
---------------------------||-------------------------------------------------|
---------------------------||-------------------------------------------------|
-8--10--10--10--12--12--12-||-------------------------------------------------|

-||-12-----12-----12-----12-----12-----12------5-5-5-5-5-5-5-5-5-5-5-5-5-5-5--|
-||-12-----12-----12-----12-----12-----12------5-5-5-5-5-5-5-5-5-5-5-5-5-5-5--|
-||-12-----12-----12-----12-----12-----12------5-5-5-5-5-5-5-5-5-5-5-5-5-5-5--|
-||--------------------------------------------5-5-5-5-5-5-5-5-5-5-5-5-5-5-5--|
-||-----0------0------0------0------0------0----------------------------------|
-||-----0------0------0------0------0------0----------------------------------|
        -      -      -      -      -      -

-5-5-5-5-5-5-5-5-5-5-5-5-5-5-5-5-5-5-5-5--7-7-7-7-7-7-7-7-7-7-7-7--0-0-0-0-0--|
-5-5-5-5-5-5-5-5-5-5-5-5-5-5-5-5-5-5-5-5--7-7-7-7-7-7-7-7-7-7-7-7--0-0-0-0-0--|
-5-5-5-5-5-5-5-5-5-5-5-5-5-5-5-5-5-5-5-5--7-7-7-7-7-7-7-7-7-7-7-7--0-0-0-0-0--|
-5-5-5-5-5-5-5-5-5-5-5-5-5-5-5-5-5-5-5-5--7-7-7-7-7-7-7-7-7-7-7-7--0-0-0-0-0--|
------------------------------------------------------------------------------|
------------------------------------------------------------------------------|


-0-0-0-0-0-0-0-0-0-0-0-0-0-0-0-0-0-0-0----------------------------------------|
-0-0-0-0-0-0-0-0-0-0-0-0-0-0-0-0-0-0-0----------------------------------------|
-0-0-0-0-0-0-0-0-0-0-0-0-0-0-0-0-0-0-0----------------------------------------|
-0-0-0-0-0-0-0-0-0-0-0-0-0-0-0-0-0-0-0----------------------------------------|
------------------------------------------------------------------------------|
----------------------------------------2-2-2-2-2-2-2-2-2-2-2-2--3-3-3-3-3-3--|


-----------------5-5-5-5-5-5-5-5-5-5-5-5-5-5-5-5-5-5-5-5-5-5-5-5-5-5-5-5-5-5--|
-----------------5-5-5-5-5-5-5-5-5-5-5-5-5-5-5-5-5-5-5-5-5-5-5-5-5-5-5-5-5-5--|
-----------------5-5-5-5-5-5-5-5-5-5-5-5-5-5-5-5-5-5-5-5-5-5-5-5-5-5-5-5-5-5--|
-----------------5-5-5-5-5-5-5-5-5-5-5-5-5-5-5-5-5-5-5-5-5-5-5-5-5-5-5-5-5-5--|
------------------------------------------------------------------------------|
-3-3--2-2--0-0----------------------------------------------------------------|


-5-5-5-5-5-5--7-7-7-7-7-7-7-7-7-7-7-7--0-0-0-0-0-0-0-0-0-0-0-0-0-0-0-0-0-0-0--|
-5-5-5-5-5-5--7-7-7-7-7-7-7-7-7-7-7-7--0-0-0-0-0-0-0-0-0-0-0-0-0-0-0-0-0-0-0--|
-5-5-5-5-5-5--7-7-7-7-7-7-7-7-7-7-7-7--0-0-0-0-0-0-0-0-0-0-0-0-0-0-0-0-0-0-0--|
-5-5-5-5-5-5--7-7-7-7-7-7-7-7-7-7-7-7--0-0-0-0-0-0-0-0-0-0-0-0-0-0-0-0-0-0-0--|
------------------------------------------------------------------------------|
------------------------------------------------------------------------------|


-0-0-0-0-0----||-x2-----------------------------------------------------------|
-0-0-0-0-0----||--------------------------------------------------------------|
-0-0-0-0-0----||--------------------------------------------------------------|
-0-0-0-0-0----||--------------------------------------------------------------|
--------------||--------------------------------------------------------------|
--------------||--------------------------------------------------------------|


-||-------------------------------------------------------------------|x3-----|
-||-------------------------------------------------------------------|-------|
-||------------------------------3p2--0--2--0--3--0--0--0--5--0--5--7-|-------|
-||------------------------------3p2--0--2--0--3--0--5--0--5--0--5--7-|-------|
-||-------------------------------------------------------------------|-------|
-||-0-0-0--0-0-0--0-0-0--0-0-0----------------------------------------|-------|
   PM - -  - - -  - - -  - - -

----------------------------------------------------------------------||------|
----------------------------------------------------------------------||------|
----------------------------------------------------------------------||------|
----------------------------------------------------------------------||------|
----------------------------------------------------------------------||------|
----0-0-0--0-0-0--0-0-0--0-0-0--3p2--0--2--0--3--0--5--0--5--0--5--7--||------|
  PM- - -  - - -  - - -  - - -

-||---------5-/-7--5----0------/5----0h5--0--------------------5-/-7--5----0--|
-||---------5-/-7--5----0------/5----0h5--0--------------------5-/-7--5----0--|
-||---------5-/-7--5----0------/5----0h5--0--------------------5-/-7--5----0--|
-||----------------------------/5---------------------------------------------|
-||-------------------------------------------------3-------------------------|
-||--0--0-------------------0--------------------0--3----0--0-----------------|
   PM-  -                   -                    -       -  -

------/5----0h5--0------------||----------------------------------------------|
------/5----0h5--0------------||----------------------------------------------|
------/5----0h5--0------------||----------------------------------------------|
------/5----------------------||----------------------------------------------|
---0----------------------2h3-||----------------------------------------------|
---0----------------0--0--2h3-||----------------------------------------------|
   -                -  -


This is a tab on the reverse track that you can find at the end on this song.
It's actually the first riff of esoteric surgery.
Tunning : D standard

-||---------------------------------------------------------------------------|
-||---------------------------------------------------------------------------|
-||-9--------7-------5-------5---------5-----5-----5-----5---9-------7--------|
-||-----9--------9-------9------9--7------7-----5-----4----------9-------9----|
-||---------------------------------------------------------------------------|
-||---------------------------------------------------------------------------|


------------------------------------------------------------------------------|
------------------------------------------------------------------------------|
-5-------5---------5------5-----5-----5---9--11---11b---7------7------5-------|
-----9-------9--7------7-----5-----4------------9----------9------9------9----|
------------------------------------------------------------------------------|
------------------------------------------------------------------------------|


-----------------------------------||-----------------------------------------|
-----------------------------------||-----------------------------------------|
--5---------5-----5------5-----5---||-----------------------------------------|
-----9--7------7-----5------4------||-----------------------------------------|
-----------------------------------||-----------------------------------------|
-----------------------------------||-----------------------------------------|
comments
print report bad tab
8 comments total. Showing first comments.
0 reply
Jimmy-G wrote on April 20 2009, 11:15 pm

my fav song ever
thanks so much for posting this :)
\m/ \m/

0 reply
TheImpalerTMX wrote on May 1 2009, 03:16 pm

Shouldn't the last riff with the palm mutes be C5 & Db5 chords instead of C4 & Db4?

-||---------5-/-7--5----0------/5----0-5--0------------
-||---------5-/-7--5----0------/5----0-5--0------------
-||---------5-/-7--5----0------/5----0-5--0------------
-||----------------------------/5----------------------
-||--0--0-------------------0-----------------0--0--3--
-||--0--0-------------------0-----------------0--0--3-- etc.

Otherwise, at a quick glance this looks good. Thanks for taking the time to write it out.

0 reply
TheImpalerTMX wrote on May 1 2009, 03:21 pm

Whoops, forgot to make the corrections

-||---------5-/-7--5----0------/5----0-5--0------------
-||---------5-/-7--5----0------/5----0-5--0------------
-||---------5-/-7--5----0------/5----0-5--0------------
-||----------------------------/5----------------------
-||--2--2-------------------2-----------------2--2--5--
-||--0--0-------------------0-----------------0--0--3-- etc.

And I see this is actually how they are all written. If it is in C-standard than the power chords shouldn't be barred like that.

I want to post or [tab]
guest
You may want to rate the tab now too:
select rating
Please do not post tabs as comments. Select "correction" instead!