Oops, an error
Loading. Please wait.

The Axe Tab

version 1
version 1

Whole song

Interactive

by Gojira
8,950 views 9 this week
4 commentsread comments
1 2 3 4 5
x 6
add to favorites
×
Save as Personal and add changes to this tab that will be seen only by you. Learn more ›
×
You can save this tab as Personal to edit and correct it or add notes. All changes will be seen only by you. Learn more »
save as personal
new!
launch autoscroll
font size
0
reset
how to read this tab
guitar tuner
Autoscroll
slow
fast
+/-
esc
set tempo
stop
Author
Difficulty
Tuning
intermediate
D G C F A D
D standard

D|----------------------------------------------------------------------|
A|----------------------------------------------------------------------|
F|----------------------------------------------------------------------|
C|----------------------------------------------------------------------|
G|------------/13----------/13---12--------/13--12----------------------|
D|--3------------------3---------------3--------------13----14----------|

D|---------------------------------------------------------------------------|
A|---------------------------------------------------------------------------|
F|---------------------------------------------------------------------------|
C|---------------------------------------------------------------------------|
G|--1-1-1--1-1-1--0-0-0--0-0-0--0-0-0--0-0-0--0-0-0--0-0-0--1-1-1--1-1-1-----|
D|--3-3-3--3-3-3--1-1-1--1-1-1--1-1-1--1-1-1--1-1-1--1-1-1--3-3-3--3-3-3-----|
  PM - - -  - - -  - - -  - - -  - - -  - - -  - - -  - - -  - - -  - - -

D|------------------------------------------------------------------------------|
A|------------------------------------------------------------------------------|
F|------------------------------------------------------------------------------|
C|------------------------------------------------------------------------------|
G|-0-0-0--0-0-0--0-0-0--0-0-0--0-0-0--0-0-0--1-1-1--1-1-1--0-0-0--0-0-0--0-0-0--|
D|-1-1-1--1-1-1--1-1-1--1-1-1--1-1-1--1-1-1--3-3-3--3-3-3--1-1-1--1-1-1--1-1-1--|
 - - -  - - -  - - -  - - -  - - -  - - -  - - -  - - -  - - -  - - -  - - -

D|------------------------------------------------------------------------0--|
A|------------------------------------------------------------------------0--|
F|------------------------------------------------------------------------0--|
C|---------------------------------------------------------------------------|
G|-0-0-0--0-0-0--0-0-0--1-1-1--1-1-1--0-0-0--0-0-0---------------------------|
D|-1-1-1--1-1-1--1-1-1--3-3-3--3-3-3--1-1-1--1-1-1---x-x-x-x-x-x-x-x-x-x-----|
 - - -  - - -  - - -  - - -  - - -  - - -  - - - N.H - - - - - - - - -

D|------------------------------------------------------------------------|
A|------------------------------------------------------------------------|
F|------------------------------------------------------------------------|
C|--8-------------7-------------8-----------------------------------------|
G|------------------------------------------------------------------------|
D|------6--8--6-------5--6--5-------6--8--6--5--6--10---------------------|

D|----------------------------------------------------------------------|---|
A|----------------------------------------------------------------------|---|
F|----------------------------------------------------------------------|---|
C|----------------------------------------------------------------------|---|
G|------------/13----------/13---12--------/13--12----------------------|---|
D|--3------------------3---------------3--------------13----14----------|---|

D|---------------------------------------------------------------------------|
A|---------------------------------------------------------------------------|
F|---------------------------------------------------------------------------|
C|---------------------------------------------------------------------------|
G|--1-1-1--1-1-1--0-0-0--0-0-0--0-0-0--0-0-0--0-0-0--0-0-0--1-1-1--1-1-1-----|
D|--3-3-3--3-3-3--1-1-1--1-1-1--1-1-1--1-1-1--1-1-1--1-1-1--3-3-3--3-3-3-----|
  PM - - -  - - -  - - -  - - -  - - -  - - -  - - -  - - -  - - -  - - -

D|------------------------------------------------------------------------------|
A|------------------------------------------------------------------------------|
F|------------------------------------------------------------------------------|
C|------------------------------------------------------------------------------|
G|-0-0-0--0-0-0--0-0-0--0-0-0--0-0-0--0-0-0--1-1-1--1-1-1--0-0-0--0-0-0--0-0-0--|
D|-1-1-1--1-1-1--1-1-1--1-1-1--1-1-1--1-1-1--3-3-3--3-3-3--1-1-1--1-1-1--1-1-1--|
 - - -  - - -  - - -  - - -  - - -  - - -  - - -  - - -  - - -  - - -  - - -

D|------------------------------------------------------------------------0--|
A|------------------------------------------------------------------------0--|
F|------------------------------------------------------------------------0--|
C|---------------------------------------------------------------------------|
G|-0-0-0--0-0-0--0-0-0--1-1-1--1-1-1--0-0-0--0-0-0---------------------------|
D|-1-1-1--1-1-1--1-1-1--3-3-3--3-3-3--1-1-1--1-1-1---x-x-x-x-x-x-x-x-x-x-----|
 - - -  - - -  - - -  - - -  - - -  - - -  - - - N.H - - - - - - - - -

D|------------------------------------------------------------------------|
A|------------------------------------------------------------------------|
F|------------------------------------------------------------------------|
C|--8-------------7-------------8-----------------------------------------|
G|------------------------------------------------------------------------|
D|------6--8--6-------5--6--5-------6--8--6--5--6--10---------------------|

D|---------------------10----10---------------------10--11----------------|
A|--11------11-------------------11------11-------------------------------|
F|------14------14-14----------------14------14-14------------------------|
C|------------------------------------------------------------------------|
G|------------------------------------------------------------------------|
D|------------------------------------------------------------------------|

D|---------------------------------------------------------------------------|
A|---------------------------------------------------------------------------|
F|---------------------------------------------------------------------------|
C|---------------7-7-7-7-7-7-7-7----------------7-7-7-7-7-7-7-7--------------|
G|--1------------------------------1------------------------------1----------|
D|--3--3--3--3---------------------3--3--3--3---------------------3--3--3--3-|
        -  -  - N.H - - - - - - -      -  -  -                        -  -  -

G|------------------------------------------------------------------------------|
A|------------------------------------------------------------------------------|
F|------------------------------------------------------------------------------|
C|--7-7-7-7-7-7-7-7---------------------------------------7-7-7-7-7-7-7-7-------|
G|--------------------1--------3--------0-----1----------------------------1----|
D|--------------------3--3--3--3--3--3--1--1--3--3--3--3-------------------3----|
                       -  -     -  -     -     -  -  -

G|------------------------------------------------------------------------------|
A|------------------------------------------------------------------------------|
F|------------------------------------------------------------------------------|
C|----------7-7-7-7-7-7-7-7---------------7-7-7-7-7-7-7-7-----------------------|
G|---------------------------1------------------------------1--------3--------1-|
D|-3--3--3-------------------3--3--3--3---------------------3--3--3--3--3--3--0-|
 -  -  -                      -  -  -                        -  -     -  -

D|----------------------------|------------------------------------------------|
A|----------------------------|------------------------------------------------|
F|----------------------------|------------------------------------------------|
C|----------------------------|------------------------------------------------|
G|--------1---------1---1-1---|------------------------------------------------|
D|-1--1---0---1--1--0---0-0---|------------------------------------------------|
 -  -

D|-------------------------------------------------------------------------|--|
A|-------------------------------------------------------------------------|--|
F|-------------------------------------------------------------------------|--|
C|---8--------------8------------------------------------------------------|--|
G|------12-----12-------10-------------------------------------------------|--|
D|-------------------------------------------------------------------------|--|

D|---------------------------------------------------------------------------|
A|---------------------------------------------------------------------------|
F|---------------------------------------------------------------------------|
C|---------------7-7-7-7-7-7-7-7----------------7-7-7-7-7-7-7-7--------------|
G|--1------------------------------1------------------------------1----------|
D|--3--3--3--3---------------------3--3--3--3---------------------3--3--3--3-|
        -  -  - N.H - - - - - - -      -  -  -                        -  -  -

D|------------------------------------------------------------------------------|
A|------------------------------------------------------------------------------|
F|------------------------------------------------------------------------------|
C|--7-7-7-7-7-7-7-7---------------------------------------7-7-7-7-7-7-7-7-------|
G|--------------------1--------3--------0-----1----------------------------1----|
D|--------------------3--3--3--3--3--3--1--1--3--3--3--3-------------------3----|
                       -  -     -  -     -     -  -  -

D|------------------------------------------------------------------------------|
A|------------------------------------------------------------------------------|
F|------------------------------------------------------------------------------|
C|----------7-7-7-7-7-7-7-7---------------7-7-7-7-7-7-7-7-----------------------|
G|---------------------------1------------------------------1--------3--------1-|
D|-3--3--3-------------------3--3--3--3---------------------3--3--3--3--3--3--0-|
 -  -  -                      -  -  -                        -  -     -  -

D|----------------------------|------------------------------------------------|
A|----------------------------|------------------------------------------------|
F|----------------------------|------------------------------------------------|
C|----------------------------|------------------------------------------------|
G|--------1---------1---1-1---|------------------------------------------------|
D|-1--1---0---1--1--0---0-0---|------------------------------------------------|
 -  -       -  -


************************************

| /   Slide up
| PM  Palm mute
| x   Dead note  

************************************
Suggest correction
comments
print report bad tab
4 comments total. Showing first comments.
0 reply
Metal_Master_0 60 Sep 09, 2013 12:58 PM

In the main verse riff, the chug should have a triplet between the two chugs, example:

|

0 reply
Metal_Master_0 60 Sep 09, 2013 01:01 PM

Didn't mean to post that but whatever, just make the verse riff

D|------------------
A|-------------------
F|-------------------
C|-------------------
G|-1-1-1-1-1-1-0-0-0-
D|-3-3-3-2-2-2-1-1-1-

0 reply
thatatheistwi 126 May 26, 2014 06:17 AM

Easier way to play intro riff:

Tremolo picked
-----------------------------------------
-----------------------------------------
-----------------------------------------
----/8----/8---\7-----/8---\7------------
--------------------------------8---/9---
-3-----3-----------3---------------------

You can figure out the timing

guest
You may want to rate the tab now too:
select rating
Wanna post a correction for this tab? Suggest correction