Oops, an error
Loading. Please wait.

The Heaviest Matter Of The Universe Tab

version 2
version 2

Whole song

Interactive

5,929 views 6 this week
2 commentsread comments
1 2 3 4 5
accurate
x 5
add to favorites
launch autoscroll
font size
0
reset
how to read this tab
guitar tuner
Autoscroll
slow
fast
+/-
esc
set tempo
stop
Help us to improve Ultimate-Guitar.com Take our survey!
×
Author
#-------------------------------PLEASE NOTE--------------------------------#
#This file is the author's own work and represents their interpretation of the#
#song. You may only use this file for private study, scholarship, or research.#
#--------------------------------------------------------------------------#
#-- File created with Instab- http://www.pconline.com/~smcarey/instab.html #
#--------------------------------------------------------------------------#

Author/Artist: Gojira
Title: The Heaviest Matter Of The Universe
Album: From Mars To Sirius
Transcribed by: Jaymz88
DGCFAD

-----------------------------------------------------------------------------|
-----------------------------------------------------------------------------|
--------------------------------------------------4--4-----------------------|
--------------------------------------------------x--x-----------------------|
--------------------------------------------------2--2-----------------------|
-0-0-0--3-3-3--2-2-2--0-0-0--2-2-2--3-3-3--0-0-0---------0-0-0--3-3-3--2-2-2-|
 - - -  - - -  - - -  - - -  - - -  - - -  - - -         - - -  - - -  - - -

----------------------------------------------------------------------------|
----------------------------------------------------------------------------|
--------4--4--3-------------------------4--4-----------------4--4--3--------|
--------x--x--x-------------------------x--x-----------------x--x--x--------|
--------2--2--1-------------------------2--2-----------------2--2--1--------|
-0-0-0------------0-3-2-0-2-3-2-0-2-3-0-------0-3-2-0-2-3-0-----------------|
 - - -            - - - - - - - - - - -       - - - - - - -

-----------------------------------------------------------------------------|
-----------------------------------------------------------------------------|
---------------------------------4--4--------------------------------------4-|
---------------------------------x--x------4--4--3-------------------------x-|
--0--3-3-3--2-2-2--0-0-0------0--2--2---0--2--2--1----0--3--2--0--2--3--0--2-|
--0--3-3-3--2-2-2--0-0-0--3b--0---------0--2--2--1----0--3--2--0--2--3--0----|
  -  - - -  - - -  - - - A.H  -         -             -  -  -  -  -  -  -

----------------------------------------------------------------------------|
----------------------------------------------------------------------------|
-4--------------4--4--3------------------------4--4---------------4--4--3---|
-x--------------x--x--x------------------------x--x---------------x--x--x---|
-2--0--3--2--0--2--2--1---0--3--2--0--2--3--0--2--2---0--3--2--0--2--2--1---|
----0--3--2--0------------0--3--2--0--2--3--0---------0--3--2--0------------|
    -  -  -  -            -  -  -  -  -  -  -         -  -  -  -

----------------------------------------------------------------------------|
----------------------------------------------------------------------------|
--------------------------------4--4---------------4--4--3------------------|
--------------------------------x--x---------------x--x--x------------------|
-3-3-3--2-2-2--0-0--0--3--2--0--2--2---0--3--2--0--2--2--1---0--3--2--0--2--|
-3-3-3--2-2-2--0-0--0--3--2--0---------0--3--2--0------------0--3--2--0--2--|
 - - -  - - -  - -  -  -  -  -         -  -  -  -            -  -  -  -  -

----------------------------------------------------------------------------|
----------------------------------------------------------------------------|
-------4--4--------------4--4--3----------------------------------4--4------|
-------x--x--------------x--x--x----------------------------------x--x------|
-3--0--2--2--0--3--2--0--2--2--1----------------------------------2--2------|
-3--0--------0--3--2--0------------3--2--0--2--0---3--2--0--2--0--------0---|
 -  -        -  -  -  -            -  -  -  -  -   -  -  -  -  -        -

-----------|----------------------------------------------------------------|
-----------|--3-------------0----------------3--------------2---------------|
-----------|--3-------------0----------------3--------------2---------------|
-/7--7--5--|--3-------------0----------------3--------------2---------------|
--x--x--x--|----------------------------------------------------------------|
-/5--5--3--|----------------------------------------------------------------|


----------------------------------------------------------------------------|
----------------------------------------------------------------------------|
-----------------------0-------------------------------3--------------------|
-----------------------0-------------------------------3--------------------|
----------------------------------------------------------------------------|
--3-3-3--2-2-2--0-0-0------3-3-3--2-2-2--4-4-4--3-3-3-----------------------|
  - - -  - - -  - - -      - - -  - - -  - - -  - - -

----------------------------------------------------------------------------|
--3---2---------------------------------3---2-------------------------------|
--3---2---------------------------------3---2-------------------------------|
--3---2----5---4---3--------------------3---2---5---7---7-------------------|
-----------x---x---x----------------------------x---x---x-------------------|
-----------3---2---1---x-x-x-x-x-x-x-x----------3---5---5--x-x-x-x-x-x-x-x--|
                       - - - - - - - -                     - - - - - - - -

----------------------------------------------------------------------------|
----------------------------------------------------------------------------|
-----------------------0------------------------------3---------------------|
-----------------------0------------------------------3---------------------|
----------------------------------------------------------------------------|
--3-3-3--2-2-2--0-0-0-----3-3-3--2-2-2--4-4-4--3-3-3------------------------|
  - - -  - - -  - - -     - - -  - - -  - - -  - - -

----------------------------------------------------------------------------|
----------------------------------------------------------------------------|
----------------------------------------------------------------------------|
----------------------------------------------------------------------------|
--0-0-0--1-1-1--1-1-1--0-0-0--1-1-1--0-0-0--1-1-1---------------------------|
--0-0-0--1-1-1--1-1-1--0-0-0--1-1-1--0-0-0--1-1-1---------------------------|
  - - -  - - -  - - -  - - -  - - -  - - -  - - -

-----------------------x-----------------------------x----------------------|
-----------------------x-----------------------------x----------------------|
-----------------------x-----------------------------x----------------------|
--4--------------4/5---x--------------------4/5--4---x----------------------|
--2--2--2--2--2--2/3---x--------------------2/3--2---x----------------------|
--2--2--2--2--2--2/3-------2--2--2--2--2-2--2/3--2--------------------------|
     -  -  -  -       A.H                           A.H

----------------------------------------------------------------------------|
----------------------------------------------------------------------------|
----------------------------------------------------------------------------|
--8---7---8---5---7------8---7---8---5---4----------------------------------|
--x---x---x---x---x------x---x---x---x---x----------------------------------|
--6---5---6---3---5------6---5---6---3---2----------------------------------|


-----------------------x-----------------------------x----------------------|
-----------------------x-----------------------------x----------------------|
-----------------------x-----------------------------x----------------------|
--4--------------4/5---x--------------------4/5--4---x----------------------|
--2--2--2--2--2--2/3---x---2--2--2--2--2-2--2/3--2---x----------------------|
--2--2--2--2--2--2/3-------2--2--2--2--2-2--2/3--2--------------------------|
     -  -  -  -       A.H  -  -  -  -  - -          A.H


-----------------------------------------------------------------------------|
-----------------------------------------------------------------------------|
-----------------------------------------------------------------------------|
-----------------------------------------------------------------------------|
-12-12-12-12--12-12--11-11--11-11-11-11-11-11--8-8-8-8--8-8--7-7--8--8--8--7-|
-----------------------------------------------------------------------------|
Without the pick

----------------------------------------------------------------------------|
----------------------------------------------------------------------------|
-----------------------0------------------------------3---------------------|
-----------------------0------------------------------3---------------------|
----------------------------------------------------------------------------|
--3-3-3--2-2-2--0-0-0-----3-3-3--2-2-2--4-4-4--3-3-3------------------------|
  - - -  - - -  - - -     - - -  - - -  - - -  - - -

-----------------------------------------------------------------------------|
-----------------------------------------------------------------------------|
-----------------------------------------------------------------------------|
-----------------------------------------------------------------------------|
-12-12-12-12--12-12--14-14-14-14-14-14--15-15-15-15-15-15--17-17-17-17-17-15-|
-----------------------------------------------------------------------------|
without the pick

-----------------------------------------------------------------------------|
-----------------------------------------------------------------------------|
-----------------------------------------------------------------------------|
-12-12-12-12--12-12--11-11--11-11-11-11-11-11--8-8-8-8--8-8--7-7--8--8--8--7-|
-----------------------------------------------------------------------------|


----------------------------------------------------------------------------|
----------------------------------------------------------------------------|
-----------------------0------------------------------3---------------------|
-----------------------0------------------------------3---------------------|
----------------------------------------------------------------------------|
--3-3-3--2-2-2--0-0-0-----3-3-3--2-2-2--4-4-4--3-3-3------------------------|
  - - -  - - -  - - -     - - -  - - -  - - -  - - -


-----------------------------------------------------------------------------|
-----------------------------------------------------------------------------|
-------------------------4--4------------------4--4--3-----------------------|
-------------------------x--x------------------x--x--x-----------------------|
-------------------------2--2------------------2--2--1-----------------------|
--0-3-2-0-2-3-2-0-2-3-0---------0-3-2-0-2-3-0------------0-3-2-0-2-3-2-0-2-3-|
  - - - - - - - - - - -         - - - - - - -            - - - - - - - - - -

----------------------------------------------------------------------------|
----------------------------------------------------------------------------|
----4--4--------------------------------------------------------------------|
----x--x------------------4--4--3-------------------------------------------|
----2--2------------------2--2--1-------------------------------------------|
-0---------0-3-2-0-2-3-0--2--2--1-------------------------------------------|
 -         - - - - - - -
Suggest correction
What's this?
You can suggest a correction to this tab. Community and Mods will review your correction and vote to approve or reject it.
comments
print report bad tab
2 comments total.
+1 reply
devil_driver68 26 wrote on June 29 2007, 02:07 am

The only problem I see in this tab is if you mean by drop D, DADGBE, its actually, DGCFAD thats all Gojira plays in.

+2 reply
ChazBcWarlock 3,258 wrote on October 24 2007, 04:21 pm

needs timings because im getting lost

guest
You may want to rate the tab now too:
select rating
Please do not post tabs as comments. Select "correction" instead!