Oops, an error
Loading. Please wait.

The Silver Cord Tab

version 2
version 2

Whole song

Interactive

2,187 views 3 this week
no commentswrite comment
1 2 3 4 5
2 more votes to show rating
add to favorites
launch autoscroll
font size
0
reset
how to read this tab
guitar tuner
Autoscroll
slow
fast
+/-
esc
set tempo
stop
Help us to improve Ultimate-Guitar.com Take our survey!
×
Author
The Silver Cord - Gojira

D Standard Tuning - D , G , C , F , A , D


A:

|--------------------------------|--------------------------------|
|--------------------------------|--------------------------------|
|--------------------------------|--------------------------------|
|--------0---------------0-------|------------0-------------------|
|----5---------------3-----------|----1-----------1-------1-------|
|5-6---------6---5-----------3---|--------3-----------3-------3---|

|--------------------------------|--------------------------------|
|--------------------------------|--------------------------------|
|--------------------------------|--------------------------------|
|------------0-------------------|------------0-------------------|
|----0---------------0-----------|----0-----------0-------0-------|
|1-------1-------------------1---|--------1-----------1-------1---|

|--------------------------------|--------------------------------|
|--------------------------------|--------------------------------|
|--------------------------------|--------------------------------|
|--------0---------------0-------|------------0-------------------|
|----5---------------3-----------|----1-----------1-------1-------|
|5-6---------6---5-----------3---|--------3-----------3-------3---|

|--------------------------------|--------------------------------|
|--------------------------------|--------------------------------|
|--------------------------------|------------------------0-------|
|------------0-------------------|--------0-------0---------------|
|----0---------------0-----------|---/8-------8-------8-------8---|
|1-------1-------------------1---|--------------------------------|



B:

|--------------------------------|--------------------------------|
|--------------------------------|--------------------------------|
|----------------------------0---|--------------------------------|
|--------0---------------0---0---|--------------------------------|
|----5---------------3-------1---|--------------------------------|
|5-6---------6---5-----------5---|--------------------------------|
Suggest correction
Give kudos to tab author, rate the tab!
1 2 3 4 5
comments
print report bad tab
guest
You may want to rate the tab now too:
select rating
Wanna post a correction for this tab? Suggest correction