Oops, an error
Loading. Please wait.

Toxic Garbage Island Tab

version 2
version 2

Whole song

Interactive

6,995 views 9 this week
no commentswrite comment
1 2 3 4 5
please rate
add to favorites
launch autoscroll
font size
0
reset
how to read this tab
guitar tuner
Autoscroll
slow
fast
+/-
esc
set tempo
stop
Help us to improve Ultimate-Guitar.com Take our survey!
×
Author
Song: Toxic Garbage Island
Artist: Gojira
Album: The Way Of All Flesh
Tabber: Bryan Atwell

This is my first tab, so go easy if it isn't right.


              *upstrokes
D|---------0*----------------------0*-----------------------0*--------------|
A|---------0-----------------------0------------------------0---------------|
F|---------0---------0*------------0---------0*-------------0---------0*----|
C|---------0---------0-------------0---------0--------------0---------0-----|
G|---------0-0-1-0-0-4-0-----------0-0-1-0-0-4-0------------0-0-1-0-0-4-0---|
C|11111111---0-1-0-0---0-1-11111111--0-1-0-0---0-1-11111111---0-1-0-0---0-1-|
  ........   . . . .   .   ........  . . . .   .   ........   . . . .   .

D|---------0*---------------------------------------------------------------|
A|---------0----------------------------------------------------------------|
F|---------0---------0*------------------------------------0*---------------|
C|---------0---------0-------------------------------------0----------------|
G|---------0-0-1-0-0-4-0---------------------0-1-------0-1-4-0--------------|
C|11111111---0-1-0-0---0-1/1818181818181818\-0-1-3ph^5-0-1---0-1/1818181818-|
  ........   . . . .   .                     . .       . .   .

D|---------------------------------------------------------------------------|
A|---------------------------------------------------------------------------|
F|----------------------0*------------------------------------0*-------------|
C|----------------------0-------------------------------------0--------------|
G|--------0-1-------0-1-4-0---------------------0-1-------0-1-4-0------------|
C|181818\-0-1-3ph^5-0-1---0-1/1818181818181818\-0-1-3ph^5-0-1---0-1/18181818-|
          . .       . .   .                     . .       . .   .
                              "pre-bent ph slowly bent back to normal
D|----------------------------|-----------------------------|
A|----------------------------|-----------------------------|
F|----------------------------|-----------------------------|
C|----------------------------|-----------------5-----5-4-3-|
G|----------0-1-------0-1-----|-----------0-0-1-3-0-1-3-2-1-|
C|18181818\-0-1-3ph^5-0-1-3ph"|--00000000-0-0-1-3-0-1-3-2-1-|x8
            . .       . .        ........   . .   . .

D|------------------------------------------------|   |-------------------|
A|------------------------------------------------|   |-------------------|
F|------------------------------------------------|   |-------------------|
C|------------------------------------------------|   |-------------------|
G|-----5-----5-----5-----5-----3-----3-----2-----2|   |-----5-----5-----5-|
C|-0-3---0-3---0-3---0-3---0-2---0-2---0-2---0-2--| x2|-0-3---0-3---0-3---|


D|-------------------------------|   |----------0*--------0*|
A|-------------------------------|   |----------0---------0-|
F|-------------------------------|   |----------0---------0-|
C|-------------------------------|   |----------0---------0-|
G|----5/7-----3-----3-----2-----2|   |----------0-0-1-0-0---|
C|0-3-----0-2---0-2---0-2---0-2--| x2|-22222222---0-1-0-0---|
                                       ........   . . . .
  PM throughout
D|-------------------------------------------------------------------------|
A|-------------------------------------------------------------------------|
F|-------------------------------------------------------------------------|
C|-------------------------------------------------------------------------|
G|-------------------------------------------------------------------------|
C|-0000000000--0000000000--0000000000--0000000000--0033333333--3333333333--|


D|--------------------------------------------------------------------------|
A|--------------------------------------------------------------------------|
F|--------------------------------------------------------------------------|
C|--------------------------------------------------------------------------|
G|--------------------------------------------------------------------------|
C|3355555555--552222222200003333333333--3333333333--3355555555-552222222200-|


D|---------------------------------------------|----------------------------|
A|---------------------------------------------|----------------------------|
F|---------------------------------------------|----------------------------|
C|---------------------------------------------|----------------------------|
G|---------------------------------------------|-----5-----5-----5----5-----|
C|003333333333-3333333333-3355555555-5500000000|-0-3---0-3---0-3---0-3--0-2-|

                    x2                                                x2
D|--------------------|-------------------------------------------------|
A|--------------------|-------------------------------------------------|
F|--------------------|-------------------------------------------------|
C|--------------------|-------------------------------------------------|
G|-3-----3-----2-----2|-----5----5-----5-----5/7-----3-----3-----2-----2|
C|---0-2---0-2---0-3--|-0-3--0-3---0-3---0-3-----0-2---0-2---0-2---0-2--|

  tremolo pick throughout    'let note ring
D|--------------------|   |--------------------------------------------------|
A|--------------------|   |--------------------------------------------------|
F|--------------------|   |--------------------------------------------------|
C|--------------------|   |--------------------------------------------------|
G|---5-7-8------------|   |--------------------------------------------------|
C|-0-0-0-0-3-5-3-2-3-2| x4|-3'-3-5-3-2'-0'-3'p2p0-3-5-3-2'-3-5-3'-3-5-3-2'-0-|

                                                x3           "same as before
D|--------------------0*|----------0*-------------|----------0*------------|
A|--------------------0-|----------0--------------|----------0-------------|
F|--------------------0-|----------0---------0----|----------0-------------|
C|--------------------0-|----------0---------0----|----------0-------------|
G|--------------------0-|----------0-0-1-0-0-4-0--|----------0-------------|
C|-3'p2p0-3-5-3-2-2-3---|-11111111---0-1-0-0---0-1|-11111111---0-1-0-0-3ph"|
                          ........   . . . .   .

D|---------------------------|   |----------------------------|
A|---------------------------|   |----------------------------|
F|---------------------------|   |----------------------------|
C|----------------5-----5-4-3|   |----------------5-----------|
G|----------0-0-1-3-0-1-3-2-1|   |----------0-0-1-3-0-1-------|
C|-00000000-0-0-1-3-0-1-3-2-1| x7|-00000000-0-0-1-3-0-1-3~2~1~|
   ........   . .   . .            ........   . .   . .

There u have it, enjoy!
Suggest correction new What's this?
You can suggest a correction to this tab. Community and Mods will review your correction and vote to approve or reject it.
comments
We did not receive enough feedback on this tab! Please rate:
print report bad tab
1 2 3 4 5
guest
You may want to rate the tab now too:
select rating
Please do not post tabs as comments. Select "correction" instead!