Oops, an error
Loading. Please wait.

Vacuity Tab

version 2
version 2

Whole song

Interactive

2,716 views 3 this week
no commentswrite comment
1 2 3 4 5
accurate
x 1
add to favorites
launch autoscroll
font size
0
reset
how to read this tab
guitar tuner
Tab Pro tools
  • play this tab
  • loop segment
  • change instrument
  • show fretboard
  • metronome
Autoscroll
slow
fast
+/-
esc
set tempo
stop
Contributor
Tuning
C G C F A D
#----------------------------------PLEASE NOTE---------------------------------#
#This file is the author's own work and represents their interpretation of the #
#song. You may only use this file for private study, scholarship, or research. #
#------------------------------------------------------------------------------##

                                     VACUITY
                              As recorded by Gojira
                   (From the 2008 Album THE WAY OF ALL FLESH)

Words and Music by Joe Duplantier, Mario Duplantier
Transcribed by GuitarHero_JP

Gtr I (C G C F A D) - 'Guitar I'
Gtr II (C G C F A D) - 'Guitar II'

 Intro
  Q=88
 4/4
  Gtr I
  E E E E H           +Q.     E E E E E   Q   E Q   E Q     Q   E E E E Q
|-------------------|-------------------|-----------------|------------------|
|-------------------|-------------------|-----------------|------------------|
|-------------------|-------------------|-----------------|------------------|
|-------------------|-------------------|-----------------|------------------|
|-------------------|-------------------|-----------------|-----0---0---0----|
|-0-3-3-2-2b3r======|=(2)-----0-0-3-3-5-|-5---7-7---8-8---|-8-----8---8------|
|
| Gtr II
| E E E E E   E E E    E  E E E E E E E   E E E E E E E E   E E E E E E E E
|-------------------|-------------------|-----------------|------------------|
|-------------------|-------------------|-----------------|------------------|
|-------------------|-------------------|-----------------|------------------|
|-------------------|-------------------|-----------------|------------------|
|-0---0---0-----0---|--0----0---0---0---|-0---0---0---0---|-0---0---0---0----|
|-0---0---0-----0---|--0----0---0---0---|-0---0---0---0---|-0---0---0---0----|


   Verse
    E E E E H           +Q.     E E E E E
||--------------------|-------------------|
||o-------------------|-------------------|
||--------------------|-------------------|
||--------------------|-------------------|
||o-------------------|-------------------|
||--0-3-3-2-2b3r======|=(2)-----0-0-3-3-5-|
|
|   E E E E E   E E E    E  E E E E E E E
||--------------------|-------------------|
||o-------------------|-------------------|
||--------------------|-------------------|
||--------------------|-------------------|
||o-0---0---0-----0---|--0----0---0---0---|
||--0---0---0-----0---|--0----0---0---0---|


                    1.
  Q   E Q   E Q     Q   E E E E Q
|-----------------|-------------------||
|-----------------|------------------o||
|-----------------|-------------------||
|-----------------|-------------------||
|-----------------|-----0---0---0----o||
|-5---7-7---8-8---|-8-----8---8-------||
|
| E E E E E E E E   E E E E E E E E
|-----------------|-------------------||
|-----------------|------------------o||
|-----------------|-------------------||
|-----------------|-------------------||
|-0---0---0---0---|-0---0---0---0----o||
|-0---0---0---0---|-0---0---0---0-----||


  2.
  Q   E E E E E E
|------------------||
|------------------||
|------------------||
|------------------||
|-----0---0---0----||
|-8-----8---8------||
|
| E E E E E E E E
|------------------||
|------------------||
|------------------||
|------------------||
|-0---0---0---0----||
|-0---0---0---0----||


 Chorus
  Gtrs I, II
                                                                 TP
  E E E E E E E E   E E E E E E E E   E E E E E E E E   E E E E  H
|-----------------|-----------------|-----------------|-----------------|
|-----------------|-----------------|-----------------|-----------------|
|-----------------|-----------------|-----------------|-----------------|
|-----------------|-----------------|-----------------|---------<7>\----|
|-2-2-2-3-3-3-3-3-|-3-3-3-5-5-5-5-7-|-2-2-2-3-3-3-3-3-|-3-3-3-3---------|
|-2-2-2-3-3-3-3-3-|-3-3-3-5-5-5-5-7-|-2-2-2-3-3-3-3-3-|-3-3-3-3---------|
                                                                ^Harmonic slide


                                                                ~~~~
  E E E E E E E E   E E E E E E E E   E E E E E E E E   E E E E H
|-----------------|-----------------|-----------------|-----------------|
|-----------------|-----------------|-----------------|-----------------|
|-----------------|-----------------|-----------------|-----------------|
|-----------------|-----------------|-----------------|---------5b7r====|
|-2-2-2-3-3-3-3-3-|-3-3-3-5-5-5-5-7-|-2-2-2-3-3-3-3-3-|-3-3-3-3---------|
|-2-2-2-3-3-3-3-3-|-3-3-3-5-5-5-5-7-|-2-2-2-3-3-3-3-3-|-3-3-3-3---------|


  E E E E E E E E   E E E E E E E E
|-----------------|-----------------||
|-----------------|-----------------||
|-----------------|-----------------||
|-----------------|-----------------||
|-0---0---0---0---|-0---0---0---0---||
|-0---0---0---0---|-0---0---0---0---||

Verse
Chorus


   Bridge
    Gtr I
    E E E  E  E  E  E  E    E  E  E E E E E E
||-----------------------|--------------------|
||o----------------------|--------------------|
||-----------------------|--------------------|
||--7-7-7--8--8--8--8--8-|--8--8--8-5-5-5-5-7-|
||o-8-8-8-10-10-10-10-10-|-10-10-10-7-7-7-7-8-|
||-----------------------|--------------------|
|
|   Gtr II
|   E E E  E  E  E  E  E    E  E  E E E E E E
||-----------------------|--------------------|
||o----------------------|--------------------|
||-----------------------|--------------------|
||-----------------------|--------------------|
||o-0---0-----0-----0----|--0-----0---0---0---|
||--0---0-----0-----0----|--0-----0---0---0---|


  E E E E E E E E   E E E E E S S S E.  4x
|-----------------|---------------------||
|-----------------|--------------------o||
|-----------------|---------------------||
|-7-7-7-3-3-3-3-5-|-5-5-5-2-2-2-2-------||
|-8-8-8-5-5-5-5-7-|-7-7-7-4-4-4-4-2/3--o||
|-----------------|---------------2/3---||
|
|                             PM|
| E E E E E E E E   E E E E E S S S E.  4x
|-----------------|---------------------||
|-----------------|--------------------o||
|-----------------|---------------------||
|-----------------|---------------------||
|-0---0---0---0---|-0---0---0-----2/3--o||
|-0---0---0---0---|-0---0---0-0-0-2/3---||


 Breakdown
  Q=132
  Gtr I
  W                                 +W
|---------------------------------|-----------------------------------|
|---------------------------------|-----------------------------------|
|---------------------------------|-----------------------------------|
|---------------------------------|-----------------------------------|
|-0-------------------------------|-(0)-------------------------------|
|-0-------------------------------|-(0)-------------------------------|
|
| Gtr II
| PM------------------------------------------------------------------|
| |-3-|   |-3-|   |-3-|   |-3-|      |-3--|   |-3-|   |-3-|   |-3-----|
| S S S E S S S E S S S E S S S E    S  S S E S S S E S S S E S S S E
|---------------------------------|-----------------------------------|
|---------------------------------|-----------------------------------|
|---------------------------------|-----------------------------------|
|---------------------------------|-----------------------------------|
|---------------------------------|-----------------------------------|
|-0-0-0-0-2-2-2-2-3-3-3-3-0-0-0-0-|--0--0-0-0-3-3-3-3-3-3-3-3-3-3-3-3-|


  +W                                  Q      Q      Q      Q
|-----------------------------------|-----------------------------|
|-----------------------------------|-----------------------------|
|-----------------------------------|-----------------------------|
|-----------------------------------|-----------------------------|
|-(0)-------------------------------|-----------------------------|
|-(0)-------------------------------|-3------3------3------3------|
|
|  PM-------------------------------|
|  |-3--|   |-3-|   |-3-|   |-3-----|
|  S  S S E S S S E S S S E S S S E   Q      Q      Q      Q
|-----------------------------------|-----------------------------|
|-----------------------------------|-----------------------------|
|-----------------------------------|-----------------------------|
|-----------------------------------|-----------------------------|
|-----------------------------------|-----------------------------|
|--0--0-0-0-2-2-2-2-3-3-3-3-0-0-0-0-|-3b3.5--3b3.5--3b3.5--3b3.5--|


    Gtrs I, II
    PM----------------------------------------------------------------|
    |-3-|   |-3-|   |-3-|   |-3-|     |-3-|   |-3-|   |-3-|   |-3-----|
    S S S E S S S E S S S E S S S E   S S S E S S S E S S S E S S S E
||----------------------------------|----------------------------------|
||o---------------------------------|----------------------------------|
||----------------------------------|----------------------------------|
||----------------------------------|----------------------------------|
||o---------------------------------|----------------------------------|
||--0-0-0-0-2-2-2-2-3-3-3-3-0-0-0-0-|-0-0-0-0-3-3-3-3-3-3-3-3-3-3-3-3--|


  Gtr I
  PM------------------------------|
  |-3-|   |-3-|   |-3-|   |-3-----|
  S S S E S S S E S S S E S S S E   Q      Q      Q      Q       4x
|---------------------------------|------------------------------||
|---------------------------------|-----------------------------o||
|---------------------------------|------------------------------||
|---------------------------------|------------------------------||
|---------------------------------|-----------------------------o||
|-0-0-0-0-2-2-2-2-3-3-3-3-0-0-0-0-|-3------3------3------3-------||
|
| Gtr II
| PM------------------------------|
| |-3-|   |-3-|   |-3-|   |-3-----|
| S S S E S S S E S S S E S S S E   Q      Q      Q      Q       4x
|---------------------------------|------------------------------||
|---------------------------------|-----------------------------o||
|---------------------------------|------------------------------||
|---------------------------------|------------------------------||
|---------------------------------|-----------------------------o||
|-0-0-0-0-2-2-2-2-3-3-3-3-0-0-0-0-|-3b3.5--3b3.5--3b3.5--3b3.5---||


                H.=H                        Q=75
  Gtrs I, II
  Q  Q  Q  Q    Q  Q  Q  Q    Q  Q  Q  Q    +W
|-------------|-------------|-------------|--------|
|-------------|-------------|-------------|--------|
|-------------|-------------|-------------|--------|
|-------------|-------------|-------------|--------|
|-------------|-------------|-------------|--------|
|-3--3--3--3--|-3--3--3--3--|-2--2--2--2--|-(2)----|


   Bridge
    Q=90
    PM--------------------------------------------|
    T T S T T S T T S T T S T T S T T S T T S T T S
||--------------------------------------------------|
||o-------------------------------------------------|
||--------------------------------------------------|
||--------------------------------------------------|
||o-------------------------------------------------|
||--0-0-0-2-2-2-3-3-3-0-0-0-2-2-2-3-3-3-0-0-0-2-2-2-|


  PM--------------------------------------|
  T T S T T S T T S T T S T T S T T S T T S  S   S
|----------------------------------------------------||
|---------------------------------------------------o||
|----------------------------------------------------||
|-------------------------------------------[3]\[2]--||
|---------------------------------------------------o||
|-0-0-0-0-0-0-2-2-2-0-0-0-2-2-2-3-3-3-5-5-5----------||


    PM--------------------------------------------|
    T T S T T S T T S T T S T T S T T S T T S T T S
||--------------------------------------------------|
||o-------------------------------------------------|
||--------------------------------------------------|
||--------------------------------------------------|
||o-------------------------------------------------|
||--0-0-0-2-2-2-3-3-3-0-0-0-2-2-2-3-3-3-0-0-0-2-2-2-|


  Gtr I
  PM--------------------|
  T T S T T S T T S T T S E     E     E     E
|--------------------------------------------------||
|-------------------------------------------------o||
|--------------------------------------------------||
|--------------------------------------------------||
|-------------------------------------------------o||
|-0-0-0-0-0-0-2-2-2-0-0-0-3-----3-----3-----3------||
|
| Gtr II
| PM--------------------|
| T T S T T S T T S T T S E     E     E     E
|--------------------------------------------------||
|-------------------------------------------------o||
|--------------------------------------------------||
|--------------------------------------------------||
|-------------------------------------------------o||
|-0-0-0-0-0-0-2-2-2-0-0-0-3b3.5-3b3.5-3b3.5-3b3.5--||


    Gtrs I, II
    PM--------------------------------------------|
    T T S T T S T T S T T S T T S T T S T T S T T S
||-------------------------------------------------|
||o------------------------------------------------|
||-------------------------------------------------|
||-------------------------------------------------|
||o------------------------------------------------|
||--0-0-0-2-2-2-3-3-3-0-0-0-2-2-2-3-3-3-0-0-0-2-2-2|


  PM--------------------------------------|
  T T S T T S T T S T T S T T S T T S T T S  S   S
|----------------------------------------------------||
|---------------------------------------------------o||
|----------------------------------------------------||
|-------------------------------------------[3]\[2]--||
|---------------------------------------------------o||
|-0-0-0-0-0-0-2-2-2-0-0-0-2-2-2-3-3-3-5-5-5----------||


    PM--------------------------------------------|
    T T S T T S T T S T T S T T S T T S T T S T T S
||--------------------------------------------------|
||o-------------------------------------------------|
||--------------------------------------------------|
||--------------------------------------------------|
||o-------------------------------------------------|
||--0-0-0-2-2-2-3-3-3-0-0-0-2-2-2-3-3-3-0-0-0-2-2-2-|


  Gtr I
  PM--------------------|
  T T S T T S T T S T T S E     E     E     E
|--------------------------------------------------||
|-------------------------------------------------o||
|--------------------------------------------------||
|--------------------------------------------------||
|-------------------------------------------------o||
|-0-0-0-0-0-0-2-2-2-0-0-0-3-----3-----3-----3------||
|
| Gtr II
| PM--------------------|
| T T S T T S T T S T T S E     E     E     E
|--------------------------------------------------||
|-------------------------------------------------o||
|--------------------------------------------------||
|--------------------------------------------------||
|-------------------------------------------------o||
|-0-0-0-0-0-0-2-2-2-0-0-0-3b3.5-3b3.5-3b3.5-3b3.5--||


 Bass and Drums
  Wx8
|--------|
|--------|
|--------|
|--------|
|--------|
|--------|

Bridge


 Outro
  Gtrs I, II
  E E E E E E E E   E E E E H
|-----------------|--------------*|
|-----------------|--------------*|
|-----------------|--------------*|
|-----------------|--------------*|
|-0---0---0---0---|-0---0--------*|
|-0---0---0---0---|-0---0--------*|


Duration Legend
---------------
W - whole; H - half; Q - quarter; E - 8th; S - 16th; T - 32nd; X - 64th; a - acciaccatura
+ - note tied to previous; . - note dotted; .. - note double dotted
Uncapitalized letters represent notes that are staccato (1/2 duration)
Irregular groupings are notated above the duration line
Duration letters will always appear directly above the note/fret number it represents the
duration for.  Duration letters with no fret number below them represent rests.  Multi-
bar rests are notated in the form Wxn, where n is the number of bars to rest for.  Low
melody durations appear below the staff

Tablature Legend
----------------
 h   - hammer-on
 p   - pull-off
 b   - bend
 pb  - pre-bend
 r   - bend release (if no number after the r, then release immediately)
 /\  - slide into or out of (from/to "nowhere")
 s   - legato slide
 S   - shift slide
  - natural harmonic
[n]  - artificial harmonic
n(n) - tapped harmonic
 ~   - vibrato
 tr  - trill
 T   - tap
 TP  - trem. picking
 PM  - palm muting
\n/  - tremolo bar dip; n = amount to dip
 \n  - tremolo bar down
 n/  - tremolo bar up
/n\  - tremolo bar inverted dip
 =   - hold bend; also acts as connecting device for hammers/pulls
 <>  - volume swell (louder/softer)
 x   - on rhythm slash represents muted slash
 o   - on rhythm slash represents single note slash

Misc Legend
-----------
 |  - bar
||  - double bar
||o - repeat start
o|| - repeat end
*|  - double bar (ending)
 :  - bar (freetime)
 $  - Segno
 &  - Coda
Tempo markers -  = BPM(8/16=s8/s16), where s8 = swing 8ths, s16 = swing 16ths


***************************************************************************************
* Generated using Power Tab Editor by Brad Larsen - http://powertab.guitarnetwork.org *
***************************************************************************************
comments
We did not receive enough feedback on this tab! Please rate:
print report bad tab
1 2 3 4 5
I want to post or [tab]
guest
You may want to rate the tab now too:
select rating
Please do not post tabs as comments. Select "correction" instead!