Oops, an error
Loading. Please wait.

Where Dragons Dwell Tab

version 2
version 2

Whole song

Interactive

13,133 views 45 this week
no commentswrite comment
1 2 3 4 5
accurate
x 6
add to favorites
launch autoscroll
font size
0
reset
how to read this tab
guitar tuner
Autoscroll
slow
fast
+/-
esc
set tempo
stop
Help us to improve Ultimate-Guitar.com Take our survey!
×
Author
Difficulty
jaymz88 1,144
intermediate
#--------------------------------PLEASE NOTE-------------------------------#
#This file is the author's own work and represents their interpretation of the#
#song. You may only use this file for private study, scholarship, or research.#
#--------------------------------------------------------------------------#
#- File created with Instab - http://www.pconline.com/~smcarey/instab.html-#
#--------------------------------------------------------------------------#

Author/Artist: Gojira
Title: Where Dragons Dwell
Album: From Mars To Sirius
Transcribed by: Jaymz88
DGCFAD

---------0-----------------------------------------------------------------|
---------0-----------------------------------------------------------------|
---------0----------------------0------------------------------------------|
-10-10--10-10------10--9--9--7--9--9--7--7/--------------------------------|
--x--x---x--x-------x--x--x--x--x--x--x--x---------------------------------|
--8--8---8--8--0-0--8--7--7--5--7--7--5--5/--3-2-0-2-3-0-2h3-3v---0-0-0-3v-|
             PM- -                         PM-----------        PM- - - A.H

---------------------------------------------------------------------------|
---------------------------------------------------------------------------|
---------------------------------------------------------------------------|
--5--4-4--5--4-------------------------------------------------------------|
--3--2-2--3--2-----------------x3------------------------------------------|
--3--2-2--3--2--3-2-0-2-3-0------------------------------------------------|
              PM-----------------------------------------------------------|

---------0-----------------------------------------------------------------|
---------0-----------------------------------------------------------------|
---------0----------------------0------------------------------------------|
-10-10--10-10------10--9--9--7--9--9--7--7/--------------------------------|
--x--x---x--x-------x--x--x--x--x--x--x--x---------------------------------|
--8--8---8--8--0-0--8--7--7--5--7--7--5--5/--3-2-0-2-3-0-2h3-3v---0-0-0-3v-|
             PM- -                         PM-----------        PM- - - A.H

---------------------------------------------------------------------------|
---------------------------------------------------------------------------|
---------------------------------------------------------------------------|
--5--4-4--5--4--5--7-------------------------------------------------------|
--3--2-2--3--2--3--5-------------------------------------------------------|
--3--2-2--3--2--3--5-------------------------------------------------------|


---------------------------------------------------------------------------|
---------------------------------------------------------------------------|
---------------------------------------------------------------------------|
---------------------------------------------------------------------------|
------------------------------------------------x4-------------------------|
--0--0--3-3-3-4-4-4-5-5-5-6-6-6-7-7-7--------------------------------------|
 PM-- Harm---------------------------

---------------------------------------------------------------------------|
---------------------------------------------------------------------------|
---------------------------------------------------------------------------|
---------------------------------------------------------------------------|
---------------------------------------------------------------------------|
--0--3--3333333333333333333-0-3--333333333333333333---0--2-----------------|
 PM---                     PM--                     PM---------------------|

---------------------------------------------------|--------------------x--|
---------------------------------------------------|--------------------x--|
---------------------------------------------------|--------------------x--|
---------------------------------------------------|--------------------x--|
-----------------------------------------------x4--|--------------------x--|
-22222222222222222--0--2--22222222222222222--------|--0--0-0-0--0--3v------|
                  PM----                            P -  - - -  -  A.H A.H| 

--------0-----------------------0------------------------------------------|
--------0-----------------------0------------------------------------------|
--------0-----------------------0------------------------------------------|
-10-10-10-10-------10--9--9--7--9--9--7--7---7--5-5----5--4-4--------------|
--x--x--x--x--------x--x--x--x--x--x--x--x---x--x-x----x--x-x---------------
--8--8--8--8---0-0--8--7--7--5--7--7--5--5---5--3-3----3--2-2--------------|
              PM--

-----------------------------------------------0---------------------------|
-----------------------------------------------0---------------------------|
-----------------------------------------------0-----------------------0---|
---------------------------------------10--10-10--10------10--9--9--7--9---|
-----------2----------2-----------------x---x--x---x-------x--x--x--x------|
-2h3p2--2--2--2-2-2h3-2---3-2-0-2-3-2-0-8---8--8---8--0-0--8--7--7--5------|
       PM   PM---       PM-------------              PM--------------------|

---------------------------------------------------------------------------|
---------------------------------------------------------------------------|
---------------------------------------------------------------------------|
-9--7--7----------------------------------5--4-4--5--4---------------------|
-x--x--x---3-2-0-2-3-1--------------------3--2-2--3--2---------------------|
-7--5--5---3-2-0-2-3-0-2h3-3v---0-0-3v----3--2-2--3--2--3-2-0-2-3-2-0-2-3--|
         PM-----------        PM---A.H                PM-------------------|

---------0-----------------------------------------------------------------|
---------0-----------------------------------------------------------------|
---------0----------------------0------------------------------------------|
-10-10--10-10------10--9--9--7--9--9--7--7/--------------------------------|
--x--x---x--x-------x--x--x--x--x--x--x--x---3-2-0-2-3-0-------------------|
--8--8---8--8--0-0--8--7--7--5--7--7--5--5/--3-2-0-2-3-0-2h3-3v---0-0-0-3v-|
             PM- -                         PM-----------        PM- - - A.H


---------------------------------------------------------------------------|
---------------------------------------------------------------------------|
---------------------------------------------------------------------------|
--5--4-4--5--4--5--7-------------------------------------------------------|
--3--2-2--3--2--3--5-------------------------------------------------------|
--3--2-2--3--2--3--5-------------------------------------------------------|


---------------------------------------------------------------------------|
---------------------------------------------------------------------------|
---------------------------------------------------------------------------|
---------------------------------------------------------------------------|
------------------------------------------------x2-------------------------|
--0--0--3-3-3-4-4-4-5-5-5-6-6-6-7-7-7--------------------------------------|
 PM-- Harm---------------------------


---------------------------------------------------------------------------|
---------------------------------------------------------------------------|
---------------------------------------------------------------------------|
---------------------------------------------------------------------------|
---------------------------------------------------------------------------|
--0--3--3333333333333333333-0-3--333333333333333333---0--2-----------------|
 PM---                     PM--                     PM----                 |

---------------------------------------------------|-----------------------|
---------------------------------------------------|-----------------------|
---------------------------------------------------|-----------------------|
---------------------------------------------------|-----------------------|
-----------------------------------------------x4--|-----------------------|
-22222222222222222--0--2--22222222222222222--------|--0--0-0---------------|
                  PM----                            PM---------------------|

---------------------------------------------------------------------------|
---------------------------------------------------------------------------|
---------------------------------------------------------------------------|
---------------------------------------------------------------------------|
--------5-5-5-5-5-5-5-5-5-5-5-5-5-5-5-5------------------------------------|
--0--2--2-2-2-2-2-2-2-2-2-2-2-2-2-2-2-2------------------------------------|
PM-  -

Suggest correction new What's this?
You can suggest a correction to this tab. Community and Mods will review your correction and vote to approve or reject it.
comments
print report bad tab
guest
You may want to rate the tab now too:
select rating
Please do not post tabs as comments. Select "correction" instead!