Oops, an error
Loading. Please wait.

Leave You In Love bass

99 views 1 this week
1 commentread comment
1 2 3 4 5
2 more votes to show rating
add to favorites
×
Save as Personal and add changes to this tab that will be seen only by you. Learn more ›
×
You can save this tab as Personal to edit and correct it or add notes. All changes will be seen only by you. Learn more »
launch autoscroll
font size
0
reset
guitar tuner
edit
Autoscroll
slow
fast
+/-
esc
set tempo
stop
Author
Difficulty rated advanced for fast shifting and fast plucking of fingers.

If you want to, use pick.

The bass doesn't play until the intro is finished.

TAB:
G|---9---9---8---8---6---6---8---6----11--9---11--13---14---14-------|
D|--9---9---9---9---6---6---9---6---11--11--11--11---14---14---9---7-|
A|-7---7---6---6---6---6---6---6---9---9---9---9---12---12----9---7--|
E|-----------------------------------------------------------7---5---|

TAB 2:
G|---9---9---8---8---6---6---8---6----11--9---11--13---14---14---14---14-|
D|--9---9---9---9---6---6---9---6---11--11--11--11---14---14---14---14---|
A|-7---7---6---6---6---6---6---6---9---9---9---9---12---12---12---12-----|
E|-----------------------------------------------------------------------|

CHORUS TAB: 
A|-4-4-4--2-2-2/7--7-7-7--0-0-0--4-4-4--2-2-2---7/11-11/18-18-19\-|

A|-4-4-4--2-2-2/7--7-7-7/11--12-12-12\-|

D|-----------------11-11-9-11-9\-------------|
A|-4-4-4--2-2-2--4/-------------4-4-4--2-2-2-|

Repeat "TAB" 2 times and then "TAB 2".
Then repeat CHORUS TAB 

Now follow this tab:
BRIDGE TAB:
D|-------9-----11--------11-----------9-----7-|
A|-7----------------11-9--------7-------------|

G|-------------------------------------------------9h11-16-11-9-|
D|-------9-----11--------11--------------9-----7----------------|
A|-7----------------11-9------11-9-7----------------------------|

D|-------9-----11--------11-----------9-----7-|
A|-7----------------11-9--------7-------------|

G|----------------------------------------11------------------------------|
D|-------9-----11--------11-----------9------9-7-7-7--7-7-7--7-7-7--7-7-7-|
A|-7----------------11-9--------7-----------------------------------------|

REPEAT CHORUS TABS but at the end:
ENDING OF SONG : CHORUS TAB END:
A|-7-7-7--7-7-7\-|

ENDING SONG TAB :
A|-777777722222224444444-2/4444-2-4-2-|

D|-----------------------777----77---------|
A|-777777722222220000-7/9----7/9---0-2-4-2-|

A|-777777722222224444444-2/4444-2-4-2-|

D|---------------------------4-1----|
A|-77777772222222000022224444-----7-|

            
            
Suggest correction
Creating personal tab
Creating personal tab
You can edit any tab online and save it as your Personal.

You can edit, replace or remove any tab part or add personal notes – all changes will be seen only by you.

Personal tabs can be accessed anytime from any device, even offline.
Learn more »
Give kudos to tab author, rate the tab!
1 2 3 4 5
comments
print report bad tab
1 comment total.
0 reply
bassbrother3 10 Dec 21, 2015 03:10 PM

Spot on. Nice work

guest
You may want to rate the tab now too:
select rating
Wanna post a correction for this tab? Suggest correction