Oops, an error
Loading. Please wait.

Safe In La Tab

version 1
version 1

Solo

Interactive

733 views 6 this week
no commentswrite comment
1 2 3 4 5
accurate
x 4
add to favorites
launch autoscroll
font size
0
reset
how to read this tab
guitar tuner
Autoscroll
slow
fast
+/-
esc
set tempo
stop
Help us to improve Ultimate-Guitar.com Take our survey!
×
|----------10-------------|-------------------------|-------------------------|
|-10-10—12----10-10-12----|----------------10-------|-------------------------|
|----------------------11-|--11-11-9-7--7-7----11---|--11-11-9-7--11-11-9-7---|
|-------------------------|-------------------------|-------------------------|
|-------------------------|-------------------------|-------------------------|
|-------------------------|-------------------------|-------------------------|


|-------------------------|-------------------------|-------------------------|
|-------------------------|-------------------------|-------------------------|
|-11-11-9-----------------|-------------------------|-------------------------|
|---------9---12-11-------|-------------------------|-------------------------|
|-------------------------|-------------------------|-------------------------|
|-------------------------|-------------------------|-------------------------|

play twice
Suggest correction
comments
print report bad tab
guest
You may want to rate the tab now too:
select rating
Please do not post tabs as comments. Select "correction" instead!