Oops, an error
Loading. Please wait.

Radar Love Tab

version 1
version 1

Whole song

Interactive

245,421 views 360 this week
15 commentsread comments
1 2 3 4 5
x 74
add to favorites
launch autoscroll
font size
0
reset
how to read this tab
guitar tuner
Autoscroll
slow
fast
+/-
esc
set tempo
stop
Help us to improve Ultimate-Guitar.com Take our survey!
×
        There are actually two guitars in this song.  I've
written this tab for just one.
        The song is in E.  Most of the little riffs in
this song are played in the 2nd and 14th positions using
a pentatonic scale.
        There's some noodling around during the choruses
and during verse 3 that I haven't gotten down yet.  In
verse 3, the two guitars are doing distinctly different
things.
        Additions and corrections welcome.


[intro]
--------------------------------------|
--------------------------------------|
-----------------------2--------------|
-----2-4----2------2-4---2------------|
---4------4---2--4----------0-2-2-----|
--------------------------------0-----|

[drum intro]
[bass intro]


[verse 1]

i been drivin all night, my hands wet on the wheel

[riff 1]
-----------------|
-----------------|
--4/6-4-2-4-4-2--|
--4/6-4-2-4-4-2--|
-----------------|
-----------------|

theres a voice in my head that drives my heel  [riff 1]

my baby call, said i need you here          [riff 1]

its half past four and i'm shifting gears      [riff 1]


[chorus] (just strum these chords)

E                         B               F#
when I get lonely and the longing gets too much
E                        B
she sends comfort coming in from above
C#
don't need no radio at all
D        A         E            F#
we got a thing its called radar love
D        A           E
we got a wave in the air
[no chord]
radar love


[verse 2]

the radio's playin some forgotten song
                                [riff 2]
                                ---------------------|
                                -14----17------------|
                                -14----16------------|
                                ----16----15/16------|
                                ---------------------|
                                ---------------------|

brenda lee's coming on stong [riff 2]
the road has got me hypnotized
                                        [ riff 1 up an octave ]
                                ------------------------|
                                ------------------------|
                                --16/18-16-14-16-16-14--|
                                --16/18-16-14-16-16-14--|
                                ------------------------|
                                ------------------------|

as I spin into a new sun rise   [riff 1]


[repeat chorus]

[bass and keyboard interlude with guitar solo fading in]

----------------------------------------------|
-10-9--12-10-9-9-10----10-9--12-10-10-10------|
--9-9---9--9-9-9--9-----9-9---9--9--9--9------|  x2 or x3
--9-9---9--9-9-9--9-----9-9---9--9--9--9------|
----------------------------------------------|
----------------------------------------------|

--------------------------------------------|
-14-12--15-14-12-12-14---14-12--15-14-12-14-|
-12-12--12-12-12-12-12---12-12--12-12-12-12-|
--------------------------------------------|
--------------------------------------------|
--------------------------------------------|

  A  A            (hold bend)
---------------------2------------------|
--2--2----------------------------------|
--2--2-----2---2-4^6--4^6-2---2-4-2-2---| x2
--2--2---4---4--------------4-----------|
--0--0----------------------------------|
----------------------------------------|


----------5----5-7^9-5-------7^9-5-------7^9---|
----5-7-7----7-----------5-7---------5-7-------|
--6--------------------6-----------6-----------|
-----------------------------------------------|
-----------------------------------------------|
-----------------------------------------------|


----5-8-7-5----------------|
--7---------8-7-5----------|
------------------8-7-5----|
------------------------7--|
---------------------------|
---------------------------|

[crescendo]

F#  G  Ab  A  F#


---------------------------------------------------------|
-14--14-14--14-14-----14-14-14-14--14-14-14--------------|
-14--14-14--14-14-----14-14-14-14--14-14-14--------------|
-------------------16-----------------------16-----------|
---------------------------------------------------------|
---------------------------------------------------------|

---------------------------------------|
-------17------------------------------|
-16^18----16^18-16--17^19-17^19-17^19--|
---------------------------------------|
---------------------------------------|
---------------------------------------|

C# C# C# C# C# C# C#

[drum solo]


------------------------------------------------|
------------------------------------------------|
------------------------------------------------|
------------------------------------------------|
----0-3-2----0-2------------0-3-2----0-2--------|
--2--------2-----2--------2--------2-----2------|

------------------------------------------------|
------------------------------------------------|
------------------------------------------------|
------2-1---------------------2-1---------------|
----0--------0-2------------0--------0-2--------|
--2--------2-----2--------2--------2-----2------|

------------------------------------------------|
------------------------------------------------|
------------------------------------------------|
--------------2-3-4-----------------------------|
----0-3-2-3-4-------2----0-3-2-3-4-0-2-3--------|
--2--------------------2-----------------0------|

[drum break]


verse 3

no more speed I'm almost there
                       --------------------------------------------------|
                       --------------------------------------------------|
                       --4^6-4^6-4-2-------------------------------------|
                       --------------4-----------------------------------|
                       --------------------------------------------------|
                       --------------------------------------------------|

gotta keep cool now gotta take care
                       --------------------------------------------------|
                       --------------------------------------------------|
                       ---------2---2-4-4^6-^6-2-------------------------|
                       ---2-3-4---4--------------------------------------|
                       --------------------------------------------------|
                       --------------------------------------------------|


last car to pass, here i go
                       ---14-14---14-14----------------------------------|
                       ---14-14---14-14----------------------------------|
                       ---14-14---14-14----------------------------------|
                       --------------------------------------------------|
                       --------------------------------------------------|
                       --------------------------------------------------|

the line of cars go down real slow
                       ------17------------------------------------------|
                       --------------------------------------------------|
                       ---------16^18^18-14------------------------------|
                       ---16---------------------------------------------|
                       --------------------------------------------------|
                       --------------------------------------------------|

the radio plays that forgotten song
                       --------------------------------------------------|
                       --------------------------------------------------|
                       ---------14-16-14-16^18^18-14---------------------|
                       ---14-16------------------------------------------|
                       --------------------------------------------------|
                       --------------------------------------------------|

brenda lee's coming on strong
                       --------------------------------------------------|
                       --------------------------------------------------|
                       ---16^18^18-14------------------------------------|
                       --------------------------------------------------|
                       --------------------------------------------------|
                       --------------------------------------------------|

the news man sang his same song
                       --------------------------------------------------|
                       --------------------------------------------------|
                       -------2------------------------------------------|
                       ---2-4-2------------------------------------------|
                       --------------------------------------------------|
                       --------------------------------------------------|

one more radar lover gone ..
                       ------17^19^19^19-17-14---------------------------|
                       ---14---------------------------------------------|
                       --------------------------------------------------|
                       --------------------------------------------------|
                       --------------------------------------------------|
                       --------------------------------------------------|


[last chorus]

E                                B            F#
when I'm feeling lonely and i'm sure i've had enough ..
E                            B
she sends the comfort coming in from above
C#
don't need no radio at all
D        A             E            F#
we got a thing and its called radar love
D        A             E            F#
we got a light in the  sky
D        A             E            F#
we got a thing and its called radar love
D        A             E
we got a thing   thats called
NC
radar love


crescendo on F#m to end.



************************************

"/" means slide up
"^" means bend up to note

************************************
Suggest correction
comments
print report bad tab
15 comments total. Showing first comments.
0 reply
metaltothecore 10 Nov 08, 2005 03:06 PM

pretty good my friend but riff 1 sounds differently, good work tho

-1 reply
metaltothecore 10 Nov 08, 2005 03:08 PM

oh and the intro is perfectly done

0 reply
zep123 121 Mar 07, 2006 05:43 PM

great thab

guest
You may want to rate the tab now too:
select rating
Wanna post a correction for this tab? Suggest correction