Oops, an error
Loading. Please wait.

Radar Love bass

version 2
version 2

Whole song

Interactive

22,140 views 30 this week
no commentswrite comment
1 2 3 4 5
x 11
add to favorites
×
Save as Personal and add changes to this tab that will be seen only by you. Learn more ›
×
You can save this tab as Personal to edit and correct it or add notes. All changes will be seen only by you. Learn more »
launch autoscroll
font size
0
reset
guitar tuner
backing track
0:00
0:00
edit
Autoscroll
slow
fast
+/-
esc
set tempo
stop
Author
Difficulty
-----------------------------------------------------------------
Radar Love - Golden Earring
-----------------------------------------------------------------

Tabbed By : Yanomann
Tuning    : Standard
Notes     : Play in the open position
            (aka no frets >5)
            (aka crammed together numbers are eighth notes)
            My first tab - comments/corrections welcome

Intro:                                                                     
G|--------|--------|--------|--------|--------|--2-----|--------|--------|
D|------2-|4-------|------2-|--------|------2-|4---2---|--------|--------|
A|----4---|--------|----4---|2-------|----4---|--------|----0---|2-------|
E|--------|--------|--------|--------|--------|--------|--------|----0---|

Rest 8 measures

Pre-verse                               Verse x7
G|--------|--------|--------|--------|  |:--------|--------|--------|--------:|
D|--------|--------|--------|--------|  |:--------|--------|--------|--------:|
A|--------|-----0-0|--------|--------|  |:--------|-----0-0|--------|--------:|
E|2-2-2-2-|2-2-2---|022-2-2-|2-2-20-0|  |:022-2-2-|2-2-2---|022-2-2-|2-2-20-0:|

Chorus
G|--------|--------|--------|--------|--------|--------|--------|--------|--------|
D|--------|--------|--------|--------|--------|--------|--------|--------|--------|
A|--------|--------|2-2-2222|--------|--------|--------|2-2-222-|2-2-222-|4-4-444-|
E|0-0-000-|0-0-000-|--------|2-2-222-|0-0-0000|0-0-0000|--------|--------|--------|

G|--------|--------|--------|--------|--------|--------|--------|--------|--------|
D|--------|--------|--------|--------|--------|--------|--------|--------|--------|
A|4-444444|5-5-555-|--------|--------|--------|5-5-555-|--------|--------|--------|
E|--------|-------5|--5-555-|0-0-0002|--2-2020|-------5|--5-555-|0-000000|0-------|

Pre-verse
Verse x7
Chorus

Interlude x33                                             
G|:--------|--------:|
D|:--------|--------:|
A|:--0---0-|--0-----:|
E|:2---22--|22-2-201:|

Fill #1
|------------|------------|
|------------|------------|
|4-4-4-4-4-4-|4-----------|
|------------|------------|
 ^ Triplets

Rest 8 measures

Breakdown
G|:--------|--------|--------|--------:| x4
D|:--------|--------|--------|--------:|  
A|:---0--3-|2-------|---0--2-|--------:|  
E|:2-------|--------|2-------|2-------:|  

|--------|--------|--------|--------|--------|--------|--------|--------|
|--------|--------|2--3--4-|--------|--------|--------|--------|--------|
|---0--3-|2--3--4-|--------|2-------|--0---3-|2-3---4-|0--2--4-|--------|
|2-------|--------|--------|--------|2-------|--------|--------|0-------|
                                                                ^ Let ring x10
Pre-verse
Verse x11

Extended Chorus:
G|--------|--------|--------|--------|--------|--------|--------|--------|--------|
D|--------|--------|--------|--------|--------|--------|--------|--------|--------|
A|--------|--------|2-2-2222|--------|--------|--------|2-2-222-|2-2-222-|4-4-444-|
E|0-0-000-|0-0-000-|--------|2-2-222-|0-0-0000|0-0-0000|--------|--------|--------|

G|--------|--------|--------|--------|--------|--------|--------|--------|--------|
D|--------|--------|--------|--------|--------|--------|--------|--------|--------|
A|4-444444|5-5-555-|--------|--------|--------|5-5-555-|--------|--------|--------|
E|--------|-------5|--5-555-|0-0-0002|--2-2020|-------5|--5-555-|0-0-0002|--2-2020|

G|--------|--------|--------|--------|--------|--------|--------|--------|
D|--------|--------|--------|--------|--------|--------|--------|--------|
A|5-5-555-|--------|--------|--------|5-5-555-|--------|--------|--------|
E|-------5|--5-555-|0-0-0002|--2-2020|-------5|--5-555-|0-000000|0-------|

Interlude x8

Fill #2
|--------| 
|--------| 
|--------| 
|2-------| 
Suggest correction
Creating personal tab
Creating personal tab
You can edit any tab online and save it as your Personal.

You can edit, replace or remove any tab part or add personal notes – all changes will be seen only by you.

Personal tabs can be accessed anytime from any device, even offline.
Learn more »
comments
print report bad tab
guest
You may want to rate the tab now too:
select rating
Wanna post a correction for this tab? Suggest correction