Oops, an error
Loading. Please wait.

Radar Love Tab

version 2
version 2

Whole song

Interactive

30,690 views 48 this week
no commentswrite comment
1 2 3 4 5
accurate
x 4
add to favorites
launch autoscroll
font size
0
reset
how to read this tab
guitar tuner
Tab Pro tools
  • play this tab
  • loop segment
  • change instrument
  • show fretboard
  • metronome
×
Best way to learn
"Radar Love"
Autoscroll
slow
fast
+/-
esc
set tempo
stop
Difficulty
advanced
(Intro)
E|--------------------------------------|
B|--------------------------------------|
G|-----------------------2--------------|
D|-----2-4----2------2-4---2------------|
A|---4------4---2--4----------0-2-------|
E|--------------------------------0-----|

(Drum Intro)

(Bass Intro)

Verse 1

(riff 1)
E|-----------------|
B|-----------------|
G|--2-4-2-4-4-2----|
D|--2-4-2-4-4-2----|
A|-----------------|
E|-----------------|
 
I been drivin' all night, my hands wet on the wheel (riff 1)
theres a voice in my head that drives my heel (riff 1)
my baby call, said i need you here (riff 1)
its half past four and i'm shifting gears (riff 1)


Chorus:

When I get lonely and the longing gets too much
She sends comfort coming in from above
Doesn't even matter at all
E|--------------------------------------------| (reapeat 2 times)
B|--------------------------------------------|
G|--------------------------------------------|
D|-------------------4-4-4-4------------------|
A|--2-2-2-2-2-2-2-2--2-2-2-2--4-4-4-4---------|
E|--0-0-0-0-0-0-0-0-----------2-2-2-2---------|   
We got a thing its called radar love          
We got a wave in the air                    (chorus lead)
E|--------------------------------------------------------------------|
B|---9b11-9p7p0----------------------------------7-9b11-7-9b11-9-7-5--|
G|--------------9p7p0------------------------7-9----------------------|
D|--------------------9p7p0-------------7h10--------------------------|
A|--------------------------9p7p0---7h9-------------------------------|
E|--------------------------------9-----------------------------------|   
Radar Love

Verse 2

(riff 2)
E|---------------------|
B|-14-11--16-10--------|
G|-14-11--16-11--------|
D|---------------------|
A|---------------------|
E|---------------------|

(riff 3)
E|------------------------|
B|--14-16-14-16-16-14-----|
G|--14-16-14-16-16-14-----|
D|------------------------|
A|------------------------|
E|------------------------|

the radio's playin some forgotten song (riff 2)
brenda lee's coming on stong (riff 2)
the road has got me hypnotized (riff 3)
as I spin into a new sun rise (riff 1)

Chorus:

When I get lonely and the longing gets too much
She sends comfort coming in from above
Doesn't even matter at all
E|--------------------------------------------| (reapeat 2 times)
B|--------------------------------------------|
G|--------------------------------------------|
D|-------------------4-4-4-4------------------|
A|--2-2-2-2-2-2-2-2--2-2-2-2--4-4-4-4---------|
E|--0-0-0-0-0-0-0-0-----------2-2-2-2---------|   
We got a thing its called radar love          
We got a wave in the air                           (chorus lead)
E|---------------------------------------------------------------------| 
B|---9b11-9-7-9p7p0---------------------------------7-9b11-7-9b11-7-5--|
G|-----------------9p7p0------------------------7-9--------------------|
D|-----------------------9p7p0-------------7h10------------------------|
A|-----------------------------9p7p0---7h9-----------------------------|
E|-----------------------------------9---------------------------------|   

(Solo)

E|--5-4-7-5-4-4-5---5-4-7-5-4-5--------|
B|--5-5-7-5-5-5-5---5-5-7-5-5-5--------|
G|--6-4-7-6-4-4-6---6-4-7-6-4-6--------|  (Repeat 3 Times)
D|-------------------------------------|
A|-------------------------------------|
E|-------------------------------------|

E|--9-7-10-9-7-7-9---9-7-10-9-7-9------|  (This is done only once)
B|--9-7-10-9-7-7-9---9-7-10-9-7-9------|
G|--9-7-11-9-7-7-9---9-7-11-9-7-9------|
D|-------------------------------------|
A|-------------------------------------|
E|-------------------------------------|

E|---------------------2------------------|
B|--2--2----------------------------------|  (play this 2 times) 
G|--2--2-----2---2--------4-2-----2-------|
D|--2--2---4---4---4b6--------4-2---4-4---|
A|--0--0----------------------------------|
E|----------------------------------------|


E|----------5----5-7b9-5-------7b9-5-------7b9---|
B|----5-7-7----7-----------5-7---------5-7-------|
G|--6--------------------6-----------6-----------|
D|-----------------------------------------------|
A|-----------------------------------------------|
E|-----------------------------------------------|


E|----5-8-7-5----------------|
B|--7---------8-7-5----------|
G|------------------8-7-5----|
D|------------------------7--|
A|---------------------------|
E|---------------------------|

E|---------------------------------------------------------|
B|-14--14-14--14-14-----14-14-14-14--14-14-14--------------|
G|-14--14-14--14-14-----14-14-14-14--14-14-14--------------|
D|-------------------16-----------------------16-----------|
A|---------------------------------------------------------|
E|---------------------------------------------------------|

E|---------------------------------------|
B|-------17------------------------------|
G|-16b18----16b18-16--17b19-17b19-17b19--|
D|---------------------------------------|
A|---------------------------------------|
E|---------------------------------------|

(Drum Solo)

E|------------------------------------------------|
B|------------------------------------------------|
G|------------------------------------------------|
D|------------------------------------------------|
A|----0-3-2----0-2------------0-3-2----0-2--------|
E|--2--------2-----2--------2--------2-----2------|

E|------------------------------------------------|
B|------------------------------------------------|
G|------------------------------------------------|
D|------2-1---------------------2-1---------------|
A|----0--------0-2------------0--------0-2--------|
E|--2--------2-----2--------2--------2-----2------|

E|------------------------------------------------|
B|------------------------------------------------|
G|------------------------------------------------|
D|--------------2-3-4-----------------------------|
A|----0-3-2-3-4-------2----0-3-2-3-4-0-2-3--------|
E|--2--------------------2-----------------0------|

Verse 3

No more speed I'm almost there
E|-------------------|
B|-------------------|
G|--4b6-4b6-4-2------|
D|--------------4----|
A|-------------------|
E|-------------------|

gotta keep cool now gotta take care
E|-------------------------------|
B|-------------------------------|
G|---------2---2-4-4b6-4b6-2-----|
D|---2-3-4---4-------------------|
A|-------------------------------|
E|-------------------------------|


last car to pass, here i go
E|---7-7---7-7----|
B|---7-7---7-7----|
G|---7-7---7-7----|
D|----------------|
A|----------------|
E|----------------|

the line of cars go down real slow
E|------19b21-19b21-19b21-19p17------------|
B|-----------------------------------------|
G|-----------------------------------------|
D|-----------------------------------------|
A|-----------------------------------------|
E|-----------------------------------------|

the radio plays that forgotten song
E|----------------------------------|
B|----------------------------------|
G|---------14-16-14-16b18-16b18-14--|
D|---14-16--------------------------|
A|----------------------------------|
E|----------------------------------|

brenda lee's coming on strong
E|-------------------------------------------|
B|----12b14-12b14-12b14r12-10----------------|
G|-------------------------------------------|
D|-------------------------------------------|
A|-------------------------------------------|
E|-------------------------------------------|

the news man sang his same song
E|-----------------|
B|--------2--------|
G|---2h4--0--------|
D|-----------------|
A|-----------------|
E|-----------------|

one more radar lover gone
E|------17b19b19b19-17-14---------------------------|
B|---14---------------------------------------------|
G|--------------------------------------------------|
D|--------------------------------------------------|
A|--------------------------------------------------|
E|--------------------------------------------------|

when I get lonely and i'm sure i've had enough
she sends a comfort coming in from above
doesn't even matter at all
E|--------------------------------------------| (reapeat 2 times)
B|--------------------------------------------|
G|--------------------------------------------|
D|-------------------4-4-4-4------------------|
A|--2-2-2-2-2-2-2-2--2-2-2-2--4-4-4-4---------|
E|--0-0-0-0-0-0-0-0-----------2-2-2-2---------|   

We got a thing and its called Radar Love
We got a light in the  sky
We got a thing and its called Radar Love
We got a thing thats called.... 
                                         (chorus lead)
E|----------------------------------------------------------------10-10--| 
B|---9b11-9-7-9p7p0---------------------------------7-9b11--12b14--------|
G|-----------------9p7p0------------------------7-9----------------------|
D|-----------------------9p7p0-------------7h10--------------------------|
A|-----------------------------9p7p0---7h9-------------------------------|
E|-----------------------------------9-----------------------------------| 

E|--------10-10-------10-10-------10-10------------15-------15-----15----| 
B|--12b14-------12b14-------12b14-------12b14-17b19---17b19---17b19------|
G|-----------------------------------------------------------------------|
D|-----------------------------------------------------------------------|
A|-----------------------------------------------------------------------|
E|-----------------------------------------------------------------------|

E|-------15--------15--17b19-15-17b19-15---------------------------------| 
B|-17b19-----17b19-----------------------17p15---------------------------|
G|---------------------------------------------18p15---------------------|
D|---------------------------------------------------15\12-------9-7-----|
A|---------------------------------------------------------12-10---------|
E|-----------------------------------------------------------------------| 

Radar Love

comments
print report bad tab
I want to post or [tab]
guest
You may want to rate the tab now too:
select rating
Please do not post tabs as comments. Select "correction" instead!