Oops, an error
Loading. Please wait.

Twilight Zone Tab

version 1
version 1

Intro

Whole song

Interactive

Video

49,848 views 120 this week
10 commentsread comments
1 2 3 4 5
not so good
x 5
add to favorites
launch autoscroll
font size
0
reset
how to read this tab
guitar tuner
Tab Pro tools
  • play this tab
  • loop segment
  • change instrument
  • show fretboard
  • metronome
Autoscroll
slow
fast
+/-
esc
set tempo
stop
Contributor
Difficulty
intermediate
Intro
play 6 times      play 2 times    play 2 times
e|---------------|---------------|---------------|
B|---------------|---------------|---------------|
G|---------------|---------------|---------------|
D|--0-2-0--0h2p0-|--0-4-0--0h4p0-|--0-2-0--0h2p0-|
A|2------2-------|4------4-------|2------2-------|
E|---------------|---------------|---------------|

Verse 1

Bm                 
It's two a.m., the fear has gone
A
I'm sittin' here waitin', the gun still warm
G                                        F#
Maybe my connection is tired of takin' chances
               Bm
Yeah there's a storm on the loose, sirens in my head
    Em
I'm wrapped up in silence, all circuits are dead
  Bm                                        A
I cannot decode, my whole life spins into a frenzy

Chorus 

Help I'm...     The place...    My beacon's...  Where am I to go...      
e|---------------|---------------|---------------|---------------|
B|---------------|---------------|---------------|---------------|
G|----0-0-0-0----|----0-0-0-0----|----0-0-0-0----|----0-0-0-0----|
D|----0-0-0-0----|----0-0-0-0----|----0-0-0-0----|----0-0-0-0----|
A|----2-2-2-2----|----4-4-4-4----|----6-6-6-6----|----4-4-4-4----|
E|PS-------------|---------------|---------------|---------------|

Help I'm steppin' into the Twilight Zone

The place is a madhouse, feels like being cloned

My beacon's been moved under moon and star

Where am I to go, now that I've gone too far

Help I'm steppin' into the Twilight Zone

The place is a madhouse, feels like being cloned

My beacon's been moved under moon and star

Where am I to go, now that I've gone too far
              Bm          A
Soon you will come to know, When the bullet hits the bone          
Lead Riff
e|-------3---3---3---3---3------|
B|------------------------------|
G|-----5b--5b--5b--5b--5b-------|
D|------------------------------|
A|------------------------------|
E|------------------------------|
              Bm          A    
Soon you will come to know, When the bullet hits the bone


Verse 2
Bm
I'm falling down a spiral, destination unknown
A
double-crossed messenger, all alone
G                                                          F#
I can't get no connection, can't get through, where are you
         Bm    
Well the night weighs heavy on his guilty mind

This far from the borderline

when the hitman comes

He knows damn well he has been cheated

Lead Riff For 2nd Verse
weighs heavy...  this far from... when the hitman... he knows damn well...
e|---------------|----------------|----------------|----------------|
B|---3-5-5-3-5-5-|---5-7-7-5-7-7--|---7-9-9-7-9-9--|---5-7-7-5-7-7--|
G|---3-5-5-3-5-5-|---5-7-7-5-7-7--|---7-9-9-7-9-9--|---5-7-7-5-7-7--|
D|---------------|----------------|----------------|----------------|
A|---------------|----------------|----------------|----------------|
E|---------------|----------------|----------------|----------------|


Chorus

Help I'm...     The place...    My beacon's...  Where am I to go...      
e|---------------|---------------|---------------|---------------|
B|---------------|---------------|---------------|---------------|
G|----0-0-0-0----|----0-0-0-0----|----0-0-0-0----|----0-0-0-0----|
D|----0-0-0-0----|----0-0-0-0----|----0-0-0-0----|----0-0-0-0----|
A|----2-2-2-2----|----4-4-4-4----|----6-6-6-6----|----4-4-4-4----|
E|PS-------------|---------------|---------------|---------------|

Help I'm steppin' into the Twilight Zone

The place is a madhouse, feels like being cloned

My beacon's been moved under moon and star

Where am I to go, now that I've gone too far

Help I'm steppin' into the Twilight Zone

The place is a madhouse, feels like being cloned

My beacon's been moved under moon and star

Where am I to go, now that I've gone too far
              Bm          A
Soon you will come to know, When the bullet hits the bone          
Lead Riff
e|-------3---3---3---3---3------|
B|------------------------------|
G|-----5b--5b--5b--5b--5b-------|
D|------------------------------|
A|------------------------------|
E|------------------------------|
              Bm          A    
Soon you will come to know, When the bullet hits the bone

Solo
e|----------------------------------------------------------|
B|---5/7--7-8-9-9-9-9-9-9-9--10--11--12-12--10-10-12--------|
G|----------------------------------------------------------|
D|----------------------------------------------------------|
A|----------------------------------------------------------|
E|----------------------------------------------------------|

e|----------------------------------------------------------|
B|---13-14-15-15b17-15-13-13h15b17-15-13----13-14-15b17-----|
G|---------------------------------------15-----------------|
D|----------------------------------------------------------|
A|----------------------------------------------------------|
E|----------------------------------------------------------|

e|----------------------------------------------------------|
B|---15-13-15-15b17-15-13----------------13-14-15-15b17-15--|
G|------------------------13-15-13-15-15--------------------|
D|----------------------------------------------------------|
A|----------------------------------------------------------|
E|----------------------------------------------------------|

e|---------------------------------------------------------------|
B|---13-15-15b17-15-13-15b17-13----------------------------------|
G|------------------------------15-13----------13----------------|
D|------------------------------------15-13-15----15-15/\--------|
A|---------------------------------------------------------------|
E|---------------------------------------------------------------|
  8 times  8 times 8 times  8 times 8 times  8 times  8 times  
e|---10---|---8---|---10---|---8---|---10---|---12---|---14---|--12-14b----|
B|---10---|---8---|---10---|---8---|---10---|---12---|---14---|--12h14-----|
G|--------|-------|--------|-------|--------|--------|--------|--12h14-----|
D|--------|-------|--------|-------|--------|--------|--------|------------|
A|--------|-------|--------|-------|--------|--------|--------|------------|
E|--------|-------|--------|-------|--------|--------|--------|------------|

Chorus

Help I'm...     The place...    My beacon's...  Where am I to go...      
e|---------------|---------------|---------------|---------------|
B|---------------|---------------|---------------|---------------|
G|----0-0-0-0----|----0-0-0-0----|----0-0-0-0----|----0-0-0-0----|
D|----0-0-0-0----|----0-0-0-0----|----0-0-0-0----|----0-0-0-0----|
A|----2-2-2-2----|----4-4-4-4----|----6-6-6-6----|----4-4-4-4----|
E|PS-------------|---------------|---------------|---------------|

Help I'm steppin' into the Twilight Zone

The place is a madhouse, feels like being cloned

My beacon's been moved under moon and star

Where am I to go, now that I've gone too far

Help I'm steppin' into the Twilight Zone

The place is a madhouse, feels like being cloned

My beacon's been moved under moon and star

Where am I to go, now that I've gone too far
              Bm          A
Soon you will come to know, When the bullet hits the bone          
Lead Riff
e|------------------------------|
B|-------3-3h5b6-3--------------|
G|---5-5-----------5-5-3h5------|
D|------------------------------|
A|------------------------------|
E|------------------------------|
              Bm          A    
Soon you will come to know, When the bullet hits the bone
Lead Riff
e|-------------7h9b11-----------|
B|---9-9-9-9-9--------9---------|
G|------------------------------|
D|------------------------------|
A|------------------------------|
E|------------------------------|
When the bullet hits the bone!!

When the bullet hits the bone!!

When the bullet hits the bone!!

When the bullet hits the bone!!






comments
print report bad tab
10 comments total. Showing first comments.
-1 reply
Heaven Help Us wrote on December 17 2006, 09:33 pm

eh...completely wrong but at least u tried

0 reply
Thedude416 wrote on March 25 2009, 09:06 pm

Great tab!!!! 5/5

-1 reply
80smetalfreke wrote on March 30 2009, 08:13 pm

great tab except for the riff i play
e-----------------------------
b-----------------------------
g-----------------------------
d-----------------------------
a-----5--7--5---5(h)7--7(p)5--
e--7----------7--------------7

I want to post or [tab]
guest
You may want to rate the tab now too:
select rating
Please do not post tabs as comments. Select "correction" instead!