Oops, an error
Loading. Please wait.

Twilight Zone bass

version 2
version 2

Whole song

Interactive

4,043 views 3 this week
no commentswrite comment
1 2 3 4 5
2 more votes to show rating
add to favorites
×
Save as Personal and add changes to this tab that will be seen only by you. Learn more ›
×
You can save this tab as Personal to edit and correct it or add notes. All changes will be seen only by you. Learn more »
launch autoscroll
font size
0
reset
guitar tuner
backing track
0:00
0:00
edit
Autoscroll
slow
fast
+/-
esc
set tempo
stop
Author
#----------------------------------PLEASE NOTE---------------------------------#
#This file is the author's own work and represents their interpretation of the #
#song. You may only use this file for private study, scholarship, or research. #
#------------------------------------------------------------------------------#

TWILIGHT ZONE (Bassline)




Transcribed by Gary Ramsey

 

 

Gtr I (E A D G) - 'Staff'


  Q=117
 4/4
  Gtr I
  W          W          W          W
|----------|----------|----------|------|
|----------|----------|----------|------|
|----------|----------|----------|------|
|----------|----------|----------|------|


  W          Q  E E E E E E   E E Q  E E E E   E E E E E E E E
|----------|----------------|----------------|-----------------|
|----------|----------------|----------------|-----------------|
|----------|-2--2-2-2-2-2-2-|-2-2-2--2-2-2-0-|-----------------|
|----------|----------------|----------------|-0-0-0-0-0-0-0-0-|


  E E E E E E E E   E E E E E E E E   E E E E E E E E   Q  E E E E E E
|-----------------|-----------------|-----------------|----------------|
|-----------------|-----------------|-----------------|----------------|
|-----------------|-----------------|-----------------|-2--2-2-2-2-2-2-|
|-0-0-0-0-0-0-0-0-|-2-2-2-2-2-2-2-2-|-2-2-2-2-2-2-2-2-|----------------|


  E E E E E E E E   E E E E E E E E   E E E E E E E E   E E E E E E E E
|-----------------|-----------------|-----------------|-----------------|
|-----------------|-----------------|-----------------|-----------------|
|-2-2-2-2-2-2-2-2-|-2-2-2-2-2-2-2-2-|-2-2-2-2-2-2-2-2-|-----------------|
|-----------------|-----------------|-----------------|-0-0-0-0-0-0-0-0-|


  E E E E E E E E   E E E E E E E E   E E E E E E E E   E E E E E E E E
|-----------------|-----------------|-----------------|-----------------|
|-----------------|-----------------|-----------------|-----------------|
|-----------------|-----------------|-----------------|-2-2-2-2-2-2-2-2-|
|-0-0-0-0-0-0-0-0-|-2-2-2-2-2-2-2-2-|-2-2-2-2-2-2-2-2-|-----------------|


  E E E E E E E E   E E E E E E E E   E E E E E E E E   E E E E E E E E
|-----------------|-----------------|-----------------|-----------------|
|-----------------|-----------------|-----------------|-----------------|
|-2-2-2-2-2-2-2-2-|-2-2-2-2-2-2-2-2-|-2-2-2-2-2-2-2-2-|-----------------|
|-----------------|-----------------|-----------------|-0-0-0-0-0-0-0-0-|


  E E E E E E E E   E E E E E E E E   E E E E E E E E   E E E E E E E E
|-----------------|-----------------|-----------------|-----------------|
|-----------------|-----------------|-----------------|-----------------|
|-----------------|-----------------|-----------------|-2-2-2-2-2-2-2-2-|
|-0-0-0-0-0-0-0-0-|-2-2-2-2-2-2-2-2-|-2-2-2-2-2-2-2-2-|-----------------|


  E E E E E E E E   Q  E E E E E E   E E E E E E E E   E E E E E E E E
|-----------------|----------------|-----------------|-----------------|
|-----------------|----------------|-----------0---2-|-----------------|
|-2-2-2-2-2-2-2-2-|-2--2-2-2-2-2-2-|-2-2-2-2-2---4---|-0-0-0-0-0-0-0-0-|
|-----------------|----------------|-----------------|-----------------|


  E E E E E E E S S   E E E E E E E E   E E E E E E E E   E E E E E E E E
|-------------------|-----------------|-----------------|------------------|
|-------------------|-----------------|-----------------|------------------|
|-0-0-0-0-0-0-0-0---|-----------------|-----------------|------------------|
|-----------------0-|-3-3-3-3-3-3-3-3-|-3-3-3-3-3-3-3-3-|-2-2-2-2-2-2-2-2--|


  E E +S  S E Q  Q    Q  E E E E E E   E E E E E E E E   E E E E E E E E
|-------------------|----------------|-----------------|------------------|
|---4-(4)---4-4--4--|----------------|-----------------|------------------|
|-------------------|-2--2-2-2-2-2-2-|-2-2-2-2-2-2-2-2-|-0-0-0-0-0-0-0-0--|
|-2-----------------|----------------|-----------------|------------------|


  E E E E E E E S S   E E E E E E E E   E E E E E E E E   E E E E E E E E
|-------------------|-----------------|-----------------|------------------|
|-------------------|-----------------|-----------------|------------------|
|-0-0-0-0-0-0-0-0---|-----------------|-----------------|------------------|
|-----------------0-|-3-3-3-3-3-3-3-3-|-3-3-3-3-3-3-3-3-|-2-2-2-2-2-2-2-2--|


  E E E E E E E E   E E E E E E E E   +E  E Q  Q  Q    Q  E E E E E E
|-----------------|-----------------|----------------|----------------|
|-----------------|-------------0---|----------------|----------------|
|-----------------|-----0---2-2-----|-------------0--|-2--2-2-2-2-2-2-|
|-2-2-2-2-2-2-2-2-|-3-3-----------0-|-(0)-0-2--3-----|----------------|


  E E E E E E S S E   E E E E E E E E   +E  E E E E E E E   W
|-------------------|-----------------|-------------------|------|
|-------------------|-----------------|-------------------|------|
|-2-2-2-2-2-2-0-0-0-|-----0-0-2---2---|---------------0---|-2----|
|-------------------|-3-3-------3---0-|-(0)-0-2---3-3-----|------|


  +H     H      E E E E E E E E   E E E E E E E E   E E E E E E E E
|-------------|-----------------|-----------------|-----------------|
|-------------|-----------------|-----------------|-----------------|
|-(2)---------|-2-2-2-2-2-2-2-2-|-2-2-2-2-2-2-2-2-|-----------------|
|-------------|-----------------|-----------------|-0-0-0-0-0-0-0-0-|


  E E E E E E E E   E E E E E E E E   E E E E E E E E   E E E E E E E E
|-----------------|-----------------|-----------------|-----------------|
|-----------------|-----------------|-----------------|-----------------|
|-----------------|-----------------|-----------------|-2-2-2-2-2-2-2-2-|
|-0-0-0-0-0-0-0-0-|-2-2-2-2-2-2-2-2-|-2-2-2-2-2-2-2-2-|-----------------|


  E E E E E E E E   E E E E E E E E   E E E E E E E E   E E E E E E E E
|-----------------|-----------------|-----------------|-----------------|
|-----------------|-----------------|-----------------|-----------------|
|-2-2-2-2-2-2-2-2-|-2-2-2-2-2-2-2-2-|-2-2-2-2-2-2-2-2-|-----------------|
|-----------------|-----------------|-----------------|-0-0-0-0-0-0-0-0-|


  E E E E E E E E   E E E E E E E E   E E E E E E E E   E E E E E E E E
|-----------------|-----------------|-----------------|-----------------|
|-----------------|-----------------|-----------------|-----------------|
|-----------------|-----------------|-----------------|-2-2-2-2-2-2-2-2-|
|-0-0-0-0-0-0-0-0-|-2-2-2-2-2-2-2-2-|-2-2-2-2-2-2-2-2-|-----------------|


  E E E E E E E E   Q  E E E E E E   E E E E E E E E   E E E E E E E E
|-----------------|----------------|-----------------|-----------------|
|-----------------|----------------|-----------0---2-|-----------------|
|-2-2-2-2-2-2-2-2-|-2--2-2-2-2-2-2-|-2-2-2-2-2---4---|-0-0-0-0-0-0-0-0-|
|-----------------|----------------|-----------------|-----------------|


  E E E E E E E S S   E E E E E E E E   E E E E E E E E   E E E E E E E E
|-------------------|-----------------|-----------------|------------------|
|-------------------|-----------------|-----------------|------------------|
|-0-0-0-0-0-0-0-0---|-----------------|-----------------|------------------|
|-----------------0-|-3-3-3-3-3-3-3-3-|-3-3-3-3-3-3-3-3-|-2-2-2-2-2-2-2-2--|


  E E E E E E E E   Q  E E E E E E   E E E E E E E E   E E E E E E E E
|-----------------|----------------|-----------------|-----------------|
|-----------------|----------------|-----------0---2-|-----------------|
|-----------------|-2--2-2-2-2-2-2-|-2-2-2-2-2---4---|-0-0-0-0-0-0-0-0-|
|-2-2-2-2-2-2-2-2-|----------------|-----------------|-----------------|


  E E E E E E E S S   E E E E E E E E   E E E E E E E E   E E E E E E E E
|-------------------|-----------------|-----------------|------------------|
|-------------------|-----------------|-----------------|------------------|
|-0-0-0-0-0-0-0-0---|-----------------|-----------------|------------------|
|-----------------0-|-3-3-3-3-3-3-3-3-|-3-3-3-3-3-3-3-3-|-2-2-2-2-2-2-2-2--|


  E E E E E E E E   E E E E E E E E   +Q   Q  E E E E   E E E E E E E E
|-----------------|-----------------|-----------------|-----------------|
|-----------------|-------------0---|-----------------|-----------------|
|-----------------|-----0-0-2-2-----|-------------0-0-|-2-2-2-2-2-2-2-2-|
|-2-2-2-2-2-2-2-2-|-3-3-----------0-|-(0)--2--3-3-----|-----------------|


  E E E E E E S E.   Q  E E E E E E   +E  E Q  E E E E   E E E E S S E E E
|------------------|----------------|------------------|--------------------|
|------------------|------------0---|------------------|--------------------|
|-2-2-2-2-2-2-2-0--|----0-0-2-2-----|--------------0-0-|-2-2-2-2-2---2-0----|
|------------------|-3------------0-|-(0)-0-2--3-3-----|-----------------0--|


  +W           +H     +H       E E E E E S S +E  E   E E E E E S S +E  E
|------------|---------------|---------------------|---------------------|
|------------|---------------|---0-2-0-----2-(2)-0-|---0-2-0-----2-(2)-0-|
|------------|---------------|-2-------2-2---------|-2-------2-2---------|
|-(0)--------|-(0)----(0)----|---------------------|---------------------|


  E E E E E S S +E  E   E E E E E S S +E  E
|---------------------|---------------------|
|---0-2-0-----2-(2)-0-|---0-2-0-----2-(2)-0-|
|-2-------2-2---------|-2-------2-2---------|
|---------------------|---------------------|


  E E E E E S S +E  E   E E E E E S S +E  E
|---------------------|---------------------|
|---0-2-0-----2-(2)-0-|---0-2-0-----2-(2)-0-|
|-2-------2-2---------|-2-------2-2---------|
|---------------------|---------------------|


  E E E E E S S +E  E   E E E E E S S +E  E
|---------------------|---------------------|
|---0-2-0-----2-(2)-0-|---0-2-0-----2-(2)-0-|
|-2-------2-2---------|-2-------2-2---------|
|---------------------|---------------------|


  E E E E E S S +E  E   E E E E E S S +E  E
|---------------------|---------------------|
|---0-2-0-----2-(2)-0-|---0-2-0-----2-(2)-0-|
|-2-------2-2---------|-2-------2-2---------|
|---------------------|---------------------|


  E E E E E S S +E  E   E E E E E S S +E  E
|---------------------|---------------------|
|---0-2-0-----2-(2)-0-|---0-2-0-----2-(2)-0-|
|-2-------2-2---------|-2-------2-2---------|
|---------------------|---------------------|


  E E E E E S S +E  E   E E E E E S S +E  E
|---------------------|---------------------|
|---0-2-0-----2-(2)-0-|---0-2-0-----2-(2)-0-|
|-2-------2-2---------|-2-------2-2---------|
|---------------------|---------------------|


  E E E E E S S +E  E   E E E E E S S +E  E
|---------------------|---------------------|
|---0-2-0-----2-(2)-0-|---0-2-0-----2-(2)-0-|
|-2-------2-2---------|-2-------2-2---------|
|---------------------|---------------------|


  E E E E E S S +E  E   E E E E E S S +E  E
|---------------------|---------------------|
|---0-2-0-----2-(2)-0-|---0-2-0-----2-(2)-0-|
|-2-------2-2---------|-2-------2-2---------|
|---------------------|---------------------|


  E E E E E S S +E  E   E E E E E S S +E  E
|---------------------|---------------------|
|---0-2-0-----2-(2)-0-|---0-2-0-----2-(2)-0-|
|-2-------2-2---------|-2-------2-2---------|
|---------------------|---------------------|


  E E E E E S S +E  E   E E E E E S S +E  E
|---------------------|---------------------|
|---0-2-0-----2-(2)-0-|---0-2-0-----2-(2)-0-|
|-2-------2-2---------|-2-------2-2---------|
|---------------------|---------------------|


  E E E E E S S +E  E   E E E E E S S +E  E
|---------------------|---------------------|
|---0-2-0-----2-(2)-0-|---0-2-0-----2-(2)-0-|
|-2-------2-2---------|-2-------2-2---------|
|---------------------|---------------------|


  E E E E E S S +E  E   E E E E E S S +E  E
|---------------------|---------------------|
|---0-2-0-----2-(2)-0-|---0-2-0-----2-(2)-0-|
|-2-------2-2---------|-2-------2-2---------|
|---------------------|---------------------|


  E E E E E S S +E  E   E E E E E S S +E  E
|---------------------|---------------------|
|---0-2-0-----2-(2)-0-|---0-2-0-----2-(2)-0-|
|-2-------2-2---------|-2-------2-2---------|
|---------------------|---------------------|


  E E E E E S S +E  E   E E E E E S S +E  E
|---------------------|---------------------|
|---0-2-0-----2-(2)-0-|---0-2-0-----2-(2)-0-|
|-2-------2-2---------|-2-------2-2---------|
|---------------------|---------------------|


  E E E E E S S +E  E   E E E E E S S +E  E
|---------------------|---------------------|
|---0-2-0-----2-(2)-0-|---0-2-0-----2-(2)-0-|
|-2-------2-2---------|-2-------2-2---------|
|---------------------|---------------------|


  E E E E E S S +E  E   E E E E E S S +E  E
|---------------------|---------------------|
|---0-2-0-----2-(2)-0-|---0-2-0-----2-(2)-0-|
|-2-------2-2---------|-2-------2-2---------|
|---------------------|---------------------|


  E E E E E S S +E  E   E E E E E S S +E  E
|---------------------|---------------------|
|---0-2-0-----2-(2)-0-|---0-2-0-----2-(2)-0-|
|-2-------2-2---------|-2-------2-2---------|
|---------------------|---------------------|


  E E E E E S S +E  E   E E E E E S S +E  E
|---------------------|---------------------|
|---0-2-0-----2-(2)-0-|---0-2-0-----2-(2)-0-|
|-2-------2-2---------|-2-------2-2---------|
|---------------------|---------------------|


  E E E E E S S +E  E   E E E E E S S +E  E
|---------------------|---------------------|
|---0-2-0-----2-(2)-0-|---0-2-0-----2-(2)-0-|
|-2-------2-2---------|-2-------2-2---------|
|---------------------|---------------------|


  E E E E E S S +E  E   E E E E E S S +E  E
|---------------------|---------------------|
|---0-2-0-----2-(2)-0-|---0-2-0-----2-(2)-0-|
|-2-------2-2---------|-2-------2-2---------|
|---------------------|---------------------|


  E E E E E S S +E  E   E E E E E S S +E  E
|---------------------|---------------------|
|---0-2-0-----2-(2)-0-|---0-2-0-----2-(2)-0-|
|-2-------2-2---------|-2-------2-2---------|
|---------------------|---------------------|


  E E E E E S S +E  E   E E E E E S S +E  E
|---------------------|---------------------|
|---0-2-0-----2-(2)-0-|---0-2-0-----2-(2)-0-|
|-2-------2-2---------|-2-------2-2---------|
|---------------------|---------------------|


  E E E E E S S +E  E   E E E E E S S +E  E
|---------------------|---------------------|
|---0-2-0-----2-(2)-0-|---0-2-0-----2-(2)-0-|
|-2-------2-2---------|-2-------2-2---------|
|---------------------|---------------------|


  E E E E E S S +E  E   E E E E E S S +E  E
|---------------------|---------------------|
|---0-2-0-----2-(2)-0-|---0-2-0-----2-(2)-0-|
|-2-------2-2---------|-2-------2-2---------|
|---------------------|---------------------|


  E E E E E S S +E  E   E E E E E S S +E  E
|---------------------|---------------------|
|---0-2-0-----2-(2)-0-|---0-2-0-----2-(2)-0-|
|-2-------2-2---------|-2-------2-2---------|
|---------------------|---------------------|


  E E E E E S S +E  E   E E E E E S S +E  E
|---------------------|---------------------|
|---0-2-0-----2-(2)-0-|---0-2-0-----2-(2)-0-|
|-2-------2-2---------|-2-------2-2---------|
|---------------------|---------------------|


  E E E E E S S +E  E   E E E E E S S +E  E
|---------------------|---------------------|
|---0-2-0-----2-(2)-0-|---0-2-0-----2-(2)-0-|
|-2-------2-2---------|-2-------2-2---------|
|---------------------|---------------------|


  E E E E E E E E   E E E E E E E E
|-----------------|-----------------|
|-----------------|-----------------|
|-2-2-2-2-2-2-2-2-|-2-2-2-2-2-2-2-2-|
|-----------------|-----------------|


  E E E E E E E E   E E E E E E E E   E E E E E E E E   E E E E E E E E
|-----------------|-----------------|-----------------|-----------------|
|-----------------|-----------------|-----------------|-----------------|
|-2-2-2-2-2-2-2-2-|-2-2-2-2-2-2-2-2-|-2-2-2-2-2-2-2-2-|-2-2-2-2-2-2-2-2-|
|-----------------|-----------------|-----------------|-----------------|


  E E E E E E E E   E E E E E E E E   E E E E E E E E   E E E E E E E E
|-----------------|-----------------|-----------------|-----------------|
|-----------------|-----------------|-----------------|-----------------|
|-2-2-2-2-2-2-2-2-|-2-2-2-2-2-2-2-2-|-2-2-2-2-2-2-2-2-|-2-2-2-2-2-2-2-2-|
|-----------------|-----------------|-----------------|-----------------|


  Q  E E E E E E   E E E E E E E E   E E E E E E E E   E E E E E E E S S
|----------------|-----------------|-----------------|--------------------|
|----------------|-----------0---2-|-----------------|--------------------|
|-2--2-2-2-2-2-2-|-2-2-2-2-2---4---|-0-0-0-0-0-0-0-0-|-0-0-0-0-0-0-0-0----|
|----------------|-----------------|-----------------|-----------------0--|


  E E E E E E E E   E E E E E E E E   E E E E E E E E   E E E E E E E E
|-----------------|-----------------|-----------------|-----------------|
|-----------------|-----------------|-----------------|-----------------|
|-----------------|-----------------|-----------------|-----------------|
|-3-3-3-3-3-3-3-3-|-3-3-3-3-3-3-3-3-|-2-2-2-2-2-2-2-2-|-2-2-2-2-2-2-2-2-|


  Q  E E E E E E   E E E E E E E E   E E E E E E E E   E E E E E E E S S
|----------------|-----------------|-----------------|--------------------|
|----------------|-----------0---2-|-----------------|--------------------|
|-2--2-2-2-2-2-2-|-2-2-2-2-2---4---|-0-0-0-0-0-0-0-0-|-0-0-0-0-0-0-0-0----|
|----------------|-----------------|-----------------|-----------------0--|


  E E E E E E E E   E E E E E E E E   E E E E E E E E   E E E E E E E E
|-----------------|-----------------|-----------------|-----------------|
|-----------------|-----------------|-----------------|-----------------|
|-----------------|-----------------|-----------------|-----------------|
|-3-3-3-3-3-3-3-3-|-3-3-3-3-3-3-3-3-|-2-2-2-2-2-2-2-2-|-2-2-2-2-2-2-2-2-|


  Q  E E E E E E   +E  E Q  E E E E   E E E E E E E E   E E E E E E E E
|----------------|------------------|-----------------|-----------------|
|------------0---|------------------|-----------------|-----------------|
|----0-0-2-2-----|--------------0-0-|-2-2-2-2-2-2-2-2-|-2-2-2-2-2-2-0-0-|
|-3------------0-|-(0)-0-2--3-3-----|-----------------|-----------------|


  E E E E E E E E   +E  E Q  Q  E E   E E E E E E E E   E E E E E E E E
|-----------------|-----------------|-----------------|-----------------|
|-----------------|-----------------|-----------------|-----------------|
|-----0-0-2---2---|-------------0-0-|-2-2-2-2-2-2-2-2-|-2-2-2-2-2-2-0-0-|
|-3-3-------3---0-|-(0)-0-2--3------|-----------------|-----------------|


  Q  E E E E E E   +E  E Q  E E E E   E E E E E E E E   E E E E E E E E
|----------------|------------------|-----------------|-----------------|
|------------0---|------------------|-----------------|-----------------|
|----0-0-2-2-----|--------------0-0-|-2-2-2-2-2-2-2-2-|-2-2-2-2-2-2-0-0-|
|-3------------0-|-(0)-0-2--3-3-----|-----------------|-----------------|


  E E E E E E E E   +E  E Q  Q  E E   E E E E E E E E   E E E E E E E E
|-----------------|-----------------|-----------------|-----------------|
|-----------------|-----------------|-----------------|-----------------|
|-----0-0-2---2---|-------------0-0-|-2-2-2-2-2-2-2-2-|-2-2-2-2-2-2-0-0-|
|-3-3-------3---0-|-(0)-0-2--3------|-----------------|-----------------|


  E E E E E E E E   E E E E E E E E   E E E E E E E E   E E E E E E E E
|-----------------|-----------------|-----------------|-----------------|
|-----------------|-----------------|-----------------|-----------------|
|-----------------|-----------------|-2-2-2-2-2-2-2-2-|-2-2-2-2-2-2-0-0-|
|-3-3-3-3-3-3-3-2-|-0-0-0-0-0-0-0-0-|-----------------|-----------------|


  E E E E E E E E   E E E E E E E E   E E E E E E E E   E E E E E E E E
|-----------------|-----------------|-----------------|-----------------|
|-----------------|-----------------|-----------------|-----------------|
|-----------------|-----------------|-2-2-2-2-2-2-2-2-|-2-2-2-2-2-2-0-0-|
|-3-3-3-3-3-3-3-2-|-0-0-0-0-0-0-0-0-|-----------------|-----------------|


  E E E E E E E E   E E E E E E E E   E E E E E E E E   E E E E E E E E
|-----------------|-----------------|-----------------|-----------------|
|-----------------|-----------------|-----------------|-----------------|
|-----------------|-----------------|-2-2-2-2-2-2-2-2-|-2-2-2-2-2-2-0-0-|
|-3-3-3-3-3-3-3-2-|-0-0-0-0-0-0-0-0-|-----------------|-----------------|


  E E E E E E E E   E E E E E E E E   E E E E E E E E   E E E E E E E E
|-----------------|-----------------|-----------------|-----------------|
|-----------------|-----------------|-----------------|-----------------|
|-----------------|-----------------|-2-2-2-2-2-2-2-2-|-2-2-2-2-2-2-0-0-|
|-3-3-3-3-3-3-3-2-|-0-0-0-0-0-0-0-0-|-----------------|-----------------|


  E E E E E E E E   E E E E E E E E   E E E E E E E E   E E E E E E E E
|-----------------|-----------------|-----------------|-----------------|
|-----------------|-----------------|-----------------|-----------------|
|-----------------|-----------------|-2-2-2-2-2-2-2-2-|-2-2-2-2-2-2-0-0-|
|-3-3-3-3-3-3-3-2-|-0-0-0-0-0-0-0-0-|-----------------|-----------------|


  E E E E E E E E   E E E E E E E E   E E E E E E E E   E E E E E E E E
|-----------------|-----------------|-----------------|-----------------|
|-----------------|-----------------|-----------------|-----------------|
|-----------------|-----------------|-2-2-2-2-2-2-2-2-|-2-2-2-2-2-2-0-0-|
|-3-3-3-3-3-3-3-2-|-0-0-0-0-0-0-0-0-|-----------------|-----------------|


  E E E E E E E E   E E E E E E E E   E E E E E E E E   E E E E E E E E
|-----------------|-----------------|-----------------|-----------------|
|-----------------|-----------------|-----------------|-----------------|
|-----------------|-----------------|-2-2-2-2-2-2-2-2-|-2-2-2-2-2-2-0-0-|
|-3-3-3-3-3-3-3-2-|-0-0-0-0-0-0-0-0-|-----------------|-----------------|


  E E E E E E E E   E E E E E E E E   E E E E E E E E   E E E E E E E E
|-----------------|-----------------|-----------------|-----------------|
|-----------------|-----------------|-----------------|-----------------|
|-----------------|-----------------|-2-2-2-2-2-2-2-2-|-2-2-2-2-2-2-0-0-|
|-3-3-3-3-3-3-3-2-|-0-0-0-0-0-0-0-0-|-----------------|-----------------|


  E E E E E E E E   E E E E E E E E   E E E E E E E E   E E E E E E E E
|-----------------|-----------------|-----------------|-----------------|
|-----------------|-----------------|-----------------|-----------------|
|-----------------|-----------------|-2-2-2-2-2-2-2-2-|-2-2-2-2-2-2-0-0-|
|-3-3-3-3-3-3-3-2-|-0-0-0-0-0-0-0-0-|-----------------|-----------------|


  E E E E E E E E   E E E E E E E E   E E E E E E E E   E E E E E E E E
|-----------------|-----------------|-----------------|-----------------*|
|-----------------|-----------------|-----------------|-----------------*|
|-----------------|-----------------|-2-2-2-2-2-2-2-2-|-2-2-2-2-2-2-2-2-*|
|-3-3-3-3-3-3-3-2-|-0-0-0-0-0-0-0-0-|-----------------|-----------------*|




--------------------------------------------------------------------------------


Duration Legend
---------------
W - whole; H - half; Q - quarter; E - 8th; S - 16th; T - 32nd; X - 64th; a - acciaccatura
+ - note tied to previous; . - note dotted; .. - note double dotted
Uncapitalized letters represent notes that are staccato (1/2 duration)
Irregular groupings are notated above the duration line
Duration letters will always appear directly above the note/fret number it represents the
duration for.  Duration letters with no fret number below them represent rests.  Multi-
bar rests are notated in the form Wxn, where n is the number of bars to rest for.  Low
melody durations appear below the staff

Tablature Legend
----------------
 h   - hammer-on
 p   - pull-off
 b   - bend
 pb  - pre-bend
 r   - bend release (if no number after the r, then release immediately)
 /\  - slide into or out of (from/to "nowhere")
 s   - legato slide
 S   - shift slide
 - natural harmonic
[n]  - artificial harmonic
n(n) - tapped harmonic
 ~   - vibrato
 tr  - trill
 T   - tap
 TP  - trem. picking
 PM  - palm muting
\n/  - tremolo bar dip; n = amount to dip
 \n  - tremolo bar down
 n/  - tremolo bar up
/n\  - tremolo bar inverted dip
 =   - hold bend; also acts as connecting device for hammers/pulls
 <> - volume swell (louder/softer)
 x   - on rhythm slash represents muted slash
 o   - on rhythm slash represents single note slash

Misc Legend
-----------
 |  - bar
||  - double bar
||o - repeat start
o|| - repeat end
*|  - double bar (ending)
 :  - bar (freetime)
 $  - Segno
 &  - Coda
Tempo markers -  = BPM(8/16=s8/s16), where s8 = swing 8ths, s16 = swing 16ths



--------------------------------------------------------------------------------

** Generated using Power Tab Editor by Brad Larsen: The Official Power Tab Web Site

            
            
Suggest correction
Creating personal tab
Creating personal tab
You can edit any tab online and save it as your Personal.

You can edit, replace or remove any tab part or add personal notes – all changes will be seen only by you.

Personal tabs can be accessed anytime from any device, even offline.
Learn more »
Give kudos to tab author, rate the tab!
1 2 3 4 5
comments
print report bad tab
guest
You may want to rate the tab now too:
select rating
Wanna post a correction for this tab? Suggest correction