Oops, an error
Loading. Please wait.

Vanilla Queen Bass Tab

version 1
version 1

Whole song

  • Bass tab for "Vanilla Queen" by Golden Earring.

Interactive

19 views 1 this week
no commentswrite comment
1 2 3 4 5
3 more votes to show rating
add to favorites
launch autoscroll
font size
0
reset
guitar tuner
Autoscroll
slow
fast
+/-
esc
set tempo
stop
Help us to improve Ultimate-Guitar.com Take our survey!
×
Author
Difficulty
intermediate
About this tab version
Bass tab for "Vanilla Queen" by Golden Earring. Was this info helpful? Yes No
Band: Golden Earring
Album: Moontan
Song: Vanilla Queen
Tab: Bass
Tabbed by: muberal

Tempo: 126bpm
4/4

[Intro]

G|-------|-------|-------|-------|-------|-------|-------|-------|
D|-------|-------|-------|-------|-------|-------|-------|-------|
A|--5----|-------|-------|-------|-------|-------|--5----|-------|
E|-------|-------|--6----|-------|--8----|-------|-------|-------|

G|-------|-------|-------|-------|-------|-------|-------|----------------------------|
D|-------|-------|-------|-------|-------|-------|-------|----------------------------|
A|--5----|-------|-------|-------|-------|-------|--5----|----------------------(0)---|
E|-------|-------|--6----|-------|--8----|-------|-------|----------------------------|

[Verse 1]

G|-------|-------|-------|-------|-------|----------------------------|-------|-------|
D|-------|-------|-------|-------|-------|----------------------------|-------|-------|
A|--5----|-------|-------|-------|-------|----------------------(0)---|--5----|-------|
E|-------|-------|--6----|-------|--8----|----------------------------|-------|-------|

G|-------|----------------------------|-------|-------|-------|-------|-------|-------|
D|-------|----------------------------|-------|-------|-------|-------|-------|-------|
A|--5----|----------------------------|-------|-------|-------|-------|--5----|-------|
E|-------|----------------------(5)---|--6----|-------|-------|-------|-------|-------|

G|-------|----------------------------|-------|----------------------------|
D|-------|----------------------------|-------|----------------------------|
A|--5----|----------------------------|-------|----------------------------|
E|-------|----------------------(5)---|--6----|----------------------(6)---|

G|-------|----------------------------|-------|----------------------------|
D|-------|----------------------------|-------|----------------------------|
A|-------|----------------------(0)---|--5----|----------------------(0)---|
E|--8----|----------------------------|-------|----------------------------|

G|-------|----------------------------|-------|----------------------------|
D|-------|----------------------------|-------|----------------------------|
A|--5----|----------------------------|-------|----------------------------|
E|-------|----------------------(5)---|--6----|----------------------(3)---|

G|-------|----------------------------|-------|----------------------------|
D|-------|----------------------------|-------|----------------------------|
A|-------|----------------------(0)---|--5----|----------------------------|
E|--8----|----------------------------|-------|----------------------(3)---|

[Chorus 1]

Tempo: 133bpm

G|----------------------------|----------------------------|-------|-------|
D|----------------------------|----------------------------|-------|-------|
A|----------------------------|--------------3--------3/---|--5----|-------|
E|--3-----3-------------------|--1-------------------------|-------|-------|

G|----------------------------|----------|-------|-------|
D|----------------------------|----------|-------|-------|
A|----------------------------|--3-------|--5----|-------|
E|--1-----1-------------------|-----3----|-------|-------|

G|----------------------------|----------------------------|-------|-------|
D|----------------------------|----------------------------|-------|-------|
A|----------------------------|--------------3--------3/---|--5----|-------|
E|--3-----3-------------------|--1-------------------------|-------|-------|

G|----------------------------|----------|
D|----------------------------|----------|
A|----------------------------|--3-------|
E|--1-----1-------------------|-----3----|

[Verse 2]

Tempo: 126bpm

G|-------|-------|-------|-------|-------|-------|-------|-------|-------|-------|
D|-------|-------|-------|-------|-------|-------|-------|-------|-------|-------|
A|--5----|-------|-------|-------|-------|-------|-------|-------|--5----|-------|
E|-------|-------|-------|-------|--6----|-------|--8----|-------|-------|-------|

G|-------|----------------------------|-------|----------------------------|
D|-------|----------------------------|-------|----------------------------|
A|--5----|----------------------------|-------|----------------------------|
E|-------|----------------------(5)---|--6----|----------------------(3)---|

G|-------|----------------------------|-------|----------------------------|
D|-------|----------------------------|-------|----------------------------|
A|-------|----------------------------|--5----|----------------------(0)---|
E|--8----|----------------------------|-------|----------------------------|

G|-------|----------------------------|-------|----------------------------|
D|-------|----------------------------|-------|----------------------------|
A|--5----|----------------------------|-------|----------------------------|
E|-------|----------------------(5)---|--6----|----------------------(3)---|

G|-------|----------------------------|-------|----------------------------|
D|-------|----------------------------|-------|----------------------------|
A|-------|----------------------(0)---|--5----|----------------------------|
E|--8----|----------------------------|-------|----------------------------|

[Chorus 2]

Tempo: 133bpm

G|----------------------------|----------------------------|
D|----------------------------|----------------------------|
A|----------------------------|--------------3--------3/---|
E|--3-----3-------------------|--1-------------------------|

G|----------------------------|----------------------------|
D|----------------------------|----------------------------|
A|--5--------------------3----|-----4-----5----------------|
E|-----------------3--5-------|--------------------5\------|


G|----------------------------|----------|
D|----------------------------|----------|
A|----------------------------|--3-------|
E|--1-----1-------------------|-----3----|

G|----------------------------|--------------7--7----------|
D|----------------------------|-----5--7--7--------7--5----|
A|--5--------------------5----|--8-------------------------|
E|----------------------------|----------------------------|

G|----------------------------|----------------------------|
D|----------------------------|----------------------------|
A|----------------------------|--------------3--------3/---|
E|--3-----3-------------------|--1-------------------------|

G|----------------------------|----------------------------|
D|----------------------------|----------------------------|
A|--5-----------------5--8----|-----5-----3----------------|
E|----------------------------|-----------------5--4--3----|


G|----------------------------|----------|
D|----------------------------|----------|
A|----------------------------|--3-------|
E|--1-----1-------------------|-----3----|

[Bridge]

G|-------|-------|-------|-------|
D|-------|-------|-------|-------|
A|--5----|-------|-------|-------| (hold)
E|-------|-------|-------|-------|

Sixteen empty measures.

G|-------|----------------------------|----------------------------|-------|
D|-------|----------------------------|----------------------------|-------|
A|--5----|----------------------------|--3--------2-----0----------|--5----|
E|-------|--1-----3-------------------|--------------------3-------|-------| x2

G|-------|----------------------------|----------------------------|-----------------------------------------|
D|-------|----------------------------|----------------------------|-----------------------------------------|
A|--5----|----------------------------|--3--------2-----0----------|---5-------------------------------------|
E|-------|--1-----3-------------------|--------------------3-------|---------------------------5--6--6--6----|

G|----------------------------|----------------------------|----------------------------|-------|
D|--3-------------------------|----------------------------|----------------------------|-------|
A|-----5----------------------|----------------------------|--3--------2-----0----------|--5----|
E|----------------------------|--1-----3-------------------|--------------------3-------|-------|

G|-------|----------------------------|----------------------------|----------------------------|
D|-------|----------------------------|----------------------------|----------------------------|
A|--5----|----------------------------|--3--------2-----0----------|--5-----------------0--3----|
E|-------|--1-----3-------------------|--------------------3-------|----------------------------|


G|----------------------------------------------------|----------------------------|
D|----------------------------------------------------|----------------------------|
A|--5-----------------------------------------0--0----|----------------------------|
E|----------------------------------------------------|--1-----3-------------------|

G|----------------------------|--------------------5--6----|
D|----------------------------|--------------5--7----------|
A|--3-----3--2-----0----------|--5--------8----------------|
E|--------------------3-------|----------------------------|

G|--7-------------------------|----------------------------|----------------------------|-------|
D|----------------------------|----------------------------|----------------------------|-------|
A|-----5----------------------|----------------------------|--3--------2-----0----------|--5----|
E|----------------------------|--1-----3--------------3----|--------------------3-------|-------|

G|-------|----------------------------|----------------------------|----------------------------|
D|-------|----------------------------|----------------------------|----------------------------|
A|--5----|----------------------------|--3--------2-----0----------|--5-----------0--2--3--4----|
E|-------|--1-----3-------------------|--------------------3-------|----------------------------|

G|-------|----------------------------|----------------------------|----------------------------|
D|-------|----------------------------|----------------------------|----------------------------|
A|--5----|----------------------------|--3--------2-----0----------|--5-------------------------|
E|-------|--1-----3--------------3----|--------------------3-------|--------------------3--5----|

G|----------------------------|----------------------------|
D|--3-------------------------|----------------------------|
A|-----5----------------------|----------------------------|
E|----------------------------|--1-----3--------------3----|

G|----------------------------|--------------------5--6----|
D|----------------------------|--------------5--7----------|
A|--3--------2-----0----------|--5--------8----------------|
E|--------------------3-------|----------------------------|

G|--7-------------------------|----------------------------|----------------------------|-------|
D|----------------------------|----------------------------|----------------------------|-------|
A|-----5--5--5--5-------------|----------------------------|--3--------2-----0----------|--5----|
E|----------------------------|--1-----3--------------3----|--------------------3-------|-------|

G|-------|----------------------------|----------------------------|-------|
D|-------|----------------------------|----------------------------|-------|
A|--5----|----------------------------|--3--------2-----0----------|--5----|
E|-------|--1-----3--------------3----|--------------------3-------|-------|

[Chorus 3]

G|----------------------------|----------------------------|
D|----------------------------|----------------------------|
A|----------------------------|--------------3--------3/---|
E|--3-----3-------------------|--1-------------------------|

G|----------------------------|----------------------------|
D|-----------------------3----|----------------------------|
A|--5-----5-------------------|-----5--3-----5-------------|
E|-----------------3--5-------|--------------------5\------|


G|----------------------------|----------------------------|-------|-------|
D|----------------------------|----------------------------|-------|-------|
A|----------------------------|--3-------------------------|--5----|-------|
E|--1-----1--------------1----|--------------3--------3----|-------|-------|

G|----------------------------|----------------------------|
D|----------------------------|----------------------------|
A|----------------------------|--------------3--------3/---|
E|--3-----3-------------------|--1--------1----------------|

G|----------------------------|--5-----5--6--7-------------|
D|--------------5-----5--7----|-----7----------------------|
A|--5--------8-----8----------|--------------------5\------|
E|----------------------------|----------------------------|


G|----------------------------|----------|-------|-------|-------|-------|
D|----------------------------|----------|-------|-------|-------|-------|
A|----------------------------|--3-------|--5----|-------|-------|-------|
E|--1-----1-------------------|-----3----|-------|-------|-------|-------|

Pause.

Then fade in:

[Outro]

Tempo: 140bpm (a little faster at the end, about 144bpm)

G|----------------------------|----------------------------|
D|--------3-----2--------5----|--------------2-----5-------|
A|--3--5--------------3-------|-----3-----3----------------|
E|----------------------------|----------------------------|

G|----------------------------|----------------------------|
D|--------3-----2-------------|----------------------------|
A|--3--5--------------3--5----|--------------3-----5-------|
E|----------------------------|-----5-----5----------------|

After this fade-in, all of the following is played 12 times:

G|----------------------------|----------------------------|
D|--------3-----2-------------|----------------------------|
A|--3--5--------------3--5----|--------------3-----5-------|
E|----------------------------|-----5-----5----------------|

G|----------------------------|----------------------------|
D|--------3-----2-------------|--------------------3-------|
A|-----5--------------3--5----|--------------5-------------|
E|--6-------------------------|-----6-----6----------------|

G|----------------------------|----------------------------|
D|--------3-----2--------5----|--------------2-----5-------|
A|--3--5--------------3-------|-----3-----3----------------|
E|----------------------------|----------------------------|

G|----------------------------|----------------------------|
D|--------3-----2-------------|----------------------------|
A|--3--5--------------3--5----|--------------3-----5-------|
E|----------------------------|-----5-----5----------------|

Fade out at the last repeat.

Fin.


************************************
 
| /  slide up
| \  slide down
|(n) ghost note

************************************
Suggest correction
Give kudos to tab author, rate the tab!
1 2 3 4 5
comments
print report bad tab
guest
You may want to rate the tab now too:
select rating
Wanna post a correction for this tab? Suggest correction