Oops, an error
Loading. Please wait.

Lost Love chords

version 2
version 2

Whole song

427 views 21 this week
no commentswrite comment
1 2 3 4 5
2 more votes to show rating
add to favorites
×
Save as Personal and add changes to this tab that will be seen only by you. Learn more ›
×
You can save this tab as Personal to edit and correct it or add notes. All changes will be seen only by you. Learn more »
launch autoscroll
font size
0
reset
transpose
0
reset
simplify chords
display chords
guitar tuner
edit
Autoscroll
slow
fast
+/-
esc
set tempo
stop
Strumming
There is no strumming pattern for this song yet. and get +5 IQ
-------------------------------------------------------------------------------
                    LOST LOVE - Golden Smog
-------------------------------------------------------------------------------
Tabbed by: jvwald

This tab is based on this YouTube video:
https://www.youtube.com/watch?v=Mlf9GHaRLtU

If you find this tab helpful, check out the other Wilco/Tweedy tabs I've posted.

Capo: III

D x00232
Dsus2 x00230
G 320033
A x02220
Asus2 x02200
Em 022000
Em7 020000
D7 x00212
Bm x24432
D/F# 20023x
AaddF x03220

D   Dsus2  x4

D         Dsus2   D     Dsus2
Lost love in the desert
D         G       A   Asus2
Lost love on the sea
A                 Em      Em7
You can put it behind you
Em                     A   Asus2
But it's still beyond me

D                   Dsus2   D     Dsus2
'Cause hearts break in the summer
D              G         A   Asus2
Will they meet in the spring
A                   Em      Em7
Broken hearts all around me
Em                   D   Dsus2   D
But I don't feel a thing

riff 1
e|--2----------------------2-2-------------2-2-2-2-2--|
B|--3-------------3-3-3-3--3-3-------------3-3-3-3-3--|
G|--2-2-2h4-2-----2-2-2-2--2-2-2-2h4-2-----2-2-2-0-2--|
D|--0---------2-3-4-4-4-4--0-0---------3-2-0-0-0-0-0--|
A|--0-------------0-0-0-0--0-0-------------------2-0--|
E|----------------------------------------------------|

riff 2
e|--2----------------------2-2-------------2-2-----------3--------|
B|--3-------------3-3-3-3--3-3-------------3-3-----------3--------|
G|--2-2-2h4-2-----2-2-2-2--2-2-2-2h4-2-----2-2-----------0--------|
D|--0---------2-3-4-4-4-4--0-0---------3-2-0-0-2-2h4-2-0-0-----0--|
A|--0-------------0-0-0-0--0-0---------------------------2-0h2----|
E|-------------------------------------------------------3--------|

riff 2 (cont.)
e|--------------2--|
B|--------------3--|
G|--------------2--|
D|--2-2h4-2-0---0--|
A|------------2-0--|
E|-----------------|

D         Dsus2   D     Dsus2
Lost love on the highway
D         G       A   Asus2
Lost love on the phone
A                 Em      Em7
Lost love with a suitcase
Em                     A   Asus2
Heading back home

D                   Dsus2   D     Dsus2
Where hearts break in the summer
D              G         A   Asus2
And they meet in the spring
A                   Em      Em7
Mines still wrapped inside me
Em                   D   D7
But I don't feel a thing

Bm                            D
You're my lost love, I can't see
                             Bm
That you're coming back for me
                           A
You're the travel I can't find
                           G
And it's only a matter of time
                     D/F#    Em
Should have taken it all so hard
                             A   AaddF
Should have taken it all so hard

D   Dsus2   D   G
And my lost love
D   Dsus2   D   G
My lost love
D   Dsus2   D   G
My lost love
D   Dsus2   D   G   D


************************************

| /   slide up
| \   slide down
| h   hammer-on
| p   pull-off
| ~   vibrato
| +   harmonic
| x   Mute note
| b   Bend
| pb  Pre-bend
| br  Bend release
| pbr Pre-bend release
| brb Bend release bend

************************************

            
            
Suggest correction
Creating personal tab
Creating personal tab
You can edit any tab online and save it as your Personal.

You can edit, replace or remove any tab part or add personal notes – all changes will be seen only by you.

Personal tabs can be accessed anytime from any device, even offline.
Learn more »
Give kudos to tab author, rate the tab!
1 2 3 4 5
comments
print report bad tab
guest
You may want to rate the tab now too:
select rating
Wanna post a correction for this tab? Suggest correction