Oops, an error
Loading. Please wait.

Radio King chords

898 views 12 this week
1 commentread comment
1 2 3 4 5
x 8
add to favorites
×
Save as Personal and add changes to this tab that will be seen only by you. Learn more ›
×
You can save this tab as Personal to edit and correct it or add notes. All changes will be seen only by you. Learn more »
launch autoscroll
font size
0
reset
transpose
0
reset
simplify chords
display chords
guitar tuner
edit
Autoscroll
slow
fast
+/-
esc
set tempo
stop
Strumming
There is no strumming pattern for this song yet. and get +5 IQ
-------------------------------------------------------------------------------
                    RADIO KING - Golden Smog
-------------------------------------------------------------------------------
Tabbed by: jvwald

This tab is based on this YouTube video:
https://www.youtube.com/watch?v=vMXT1p-cuxo

If you find this tab helpful, check out the other Wilco/Tweedy tabs I've posted.

Capo: II

C/G 332010
Am x02210
Am7/G 302210
F 133211
Fmaj7/E 0332xx
D7 x00212
G 320033
Bm x24432

intro
e|-------------------------------------------------------------------|
B|--3---3---3---3---3---3---3---3---1---1---1---1---1---1---1---1----|
G|--0h2-0h2-0h2-0h2-0h2-0h2-0h2-0h2-0h2-0h2-0h2-0h2-0h2-0h2-0h2-0h2--|
D|--0---0---0---0---0---0---0---0---2---2---2---2---2---2---2---2----|
A|--x---x---x---x---x---x---x---x---0---0---0---0---0---0---0---0----|
E|--3---3---3---3---3---3---3---3------------------------------------|

riff 1
e|-----------------------------------------|
B|--------------------------1---1---1-1----|
G|--0-0-0---0-0-0---0-0-0---0---0h2-0-0----|
D|--0-0-0---0-0-0---0-0-0---0h2-0---0-0h2--|
A|--2-2-0h2-2-2-0h2-2-2-0h2-3---3---3-3----|
E|--3-3-3---3-3-3---3-3-3------------------|

riff 2
e|--0-0-0---0-0-0---0-0-0----|
B|--0-0-0---0-0-0---0-0-0----|
G|--0-0-0---0-0-0---0-0-0----|
D|--2-2-0h2-2-2-0h2-2-2-0h2--|
A|--2-2-2---2-2-2---2-2-2----|
E|--0-0-0---0-0-0---0-0-0----|

riff 1
Lets go down, together
riff 1
3 A.M tomorrow night
riff 2        C/G       riff 1
I'll take you over anything

riff 1
Lets go out, together
riff 1
Broad daylight in the street
riff 2        C/G       riff 1
I'll take you anywhere

Am    Am7/G          F   Fmaj7/E   F
Your music fills my car
D7                       G
Your voice breaks every time
Bm         Am
I'm still wonderin'
   Am7/G          D7
If I know who you are
                 intro
I hang on every line

riff 1
Lets go down, together
riff 1
Down by the old mainstream
riff 2       C/G       riff 1
Ill take you over anything

riff 1
Lets go back in time
riff 1
Nineteen fifty-nine
riff 2         C/G   riff 1
Ill take you, Radio King

Am    Am7/G          F   Fmaj7/E   F
Your music fills my car
D7                       G
Your voice breaks every time
Bm         Am
I'm still wonderin'
   Am7/G          D7
If I know who you are
                 intro
I hang on every line

riff 1  x2

intro

G


************************************

| /   slide up
| \   slide down
| h   hammer-on
| p   pull-off
| ~   vibrato
| +   harmonic
| x   Mute note
| b   Bend
| pb  Pre-bend
| br  Bend release
| pbr Pre-bend release
| brb Bend release bend

************************************
Suggest correction
Creating personal tab
Creating personal tab
You can edit any tab online and save it as your Personal.

You can edit, replace or remove any tab part or add personal notes – all changes will be seen only by you.

Personal tabs can be accessed anytime from any device, even offline.
Learn more »
comments
print report bad tab
1 comment total.
0 reply
pukematrix 10 Feb 13, 2016 03:34 PM

Spot. On.

guest
You may want to rate the tab now too:
select rating
Wanna post a correction for this tab? Suggest correction