Oops, an error
Loading. Please wait.

Am I Deaf tab

version 3
version 3

Whole song

  • ver 3 new
    Full tab of the song from Goldfinger's 2017 album ... Show more
10 views 9 this week
no commentswrite comment
1 2 3 4 5
2 more votes to show rating
add to favorites
×
Save as Personal and add changes to this tab that will be seen only by you. Learn more ›
×
You can save this tab as Personal to edit and correct it or add notes. All changes will be seen only by you. Learn more »
launch autoscroll
font size
0
reset
how to read this tab
guitar tuner
edit
Autoscroll
slow
fast
+/-
esc
set tempo
stop
Artist: Goldfinger
Song: Am I Deaf
Album: The Knife [2017]

[Intro]
Guitar 1
  D5/A                    D5/A        A           E5/B                    E5/B        G
e|-------------x--x-----x|-----------------------|-------------x--x-----x|-----------------------|
B|-------------x--x-----x|-----------------------|-------------x--x-----x|-----------------------|
G|-------------x--x-----x|-----------------------|-------------x--x-----x|-----------------------|
D|-7-----7-----x--x-----x|-7-----7-----7-----7---|-9-----9-----x--x-----x|-9-----9----12----12---|
A|-5-----5-----x--x-----x|-5-----5-----7-----7---|-7-----7-----x--x-----x|-7-----7----10----10---|
E|-5-----5-----x--x-----x|-5-----5-----5-----5---|-7-----7-----x--x-----x|-7-----7----10----10---|
Guitar 2
                                                                          E           G
e|-----------------------|-----------------------|-----------------------|-----------------------|
B|-----------------------|-----------------------|-----------------------|-----------------------|
G|-----------------------|-----------------------|-----------------------|-9-----9----12----12---|
D|-----------------------|-----------------------|-----------------------|-x-----x-----x-----x---|
A|-----------------------|-----------------------|-----------------------|-7-----7----10----10---|
E|-----------------------|-----------------------|-----------------------|-----------------------|

Guitar 1
  D5/A                    D5/A        A           E5/B                    E5/B        G  F# G
e|-------------x--x-----x|-----------------------|-------------x--x-----x|-----------------------|
B|-------------x--x-----x|-----------------------|-------------x--x-----x|-----------------------|
G|-------------x--x-----x|-----------------------|-------------x--x-----x|------------12-11-12---|
D|-7-----7-----x--x-----x|-7-----7-----7-----7---|-9-----9-----x--x-----x|-9-----9-----x--x--x---|
A|-5-----5-----x--x-----x|-5-----5-----7-----7---|-7-----7-----x--x-----x|-7-----7----10--9-10---|
E|-5-----5-----x--x-----x|-5-----5-----5-----5---|-7-----7-----x--x-----x|-7-----7---------------|
Guitar 2
  F#                      F#          A           E                       E           G  F# G
e|-------------x--x-----x|-----------------------|-------------x--x-----x|-----------------------|
B|-------------x--x-----x|-----------------------|-------------x--x-----x|-----------------------|
G|11----11-----x--x-----x|11----11----14----14---|-9-----9-----x--x-----x|-9-----9----12-11-12---|
D|-x-----x-----x--x-----x|-x-----x-----x-----x---|-x-----x-----x--x-----x|-x-----x-----x--x--x---|
A|-9-----9-----x--x-----x|-9-----9----12----12---|-7-----7-----x--x-----x|-7-----7----10--9-10---|
E|-------------x--x-----x|-----------------------|-------------x--x-----x|-----------------------|

Guitar 1
  D5/A                    D5/A        A           E5/B                    E5/B        G
e|-------------x--x-----x|-----------------------|-------------x--x-----x|-----------------------|
B|-------------x--x-----x|-----------------------|-------------x--x-----x|-----------------------|
G|-------------x--x-----x|-----------------------|-------------x--x-----x|-----------------------|
D|-7-----7-----x--x-----x|-7-----7-----7-----7---|-9-----9-----x--x-----x|-9-----9----12----12---|
A|-5-----5-----x--x-----x|-5-----5-----7-----7---|-7-----7-----x--x-----x|-7-----7----10----10---|
E|-5-----5-----x--x-----x|-5-----5-----5-----5---|-7-----7-----x--x-----x|-7-----7----10----10---|
Guitar 2
  F#                      F#          A           E                       E           G
e|-------------x--x-----x|-----------------------|-------------x--x-----x|-----------------------|
B|-------------x--x-----x|-----------------------|-------------x--x-----x|-----------------------|
G|11----11-----x--x-----x|11----11----14----14---|-9-----9-----x--x-----x|-9-----9----12----12---|
D|-x-----x-----x--x-----x|-x-----x-----x-----x---|-x-----x-----x--x-----x|-x-----x-----x-----x---|
A|-9-----9-----x--x-----x|-9-----9----12----12---|-7-----7-----x--x-----x|-7-----7----10----10---|
E|-------------x--x-----x|-----------------------|-------------x--x-----x|-----------------------|


[Verse]
Guitar 1
  D5                      D5          A5          E5                      E5          G  F# G
e|-------------x--x-----x|-----------------------|-------------x--x-----x|-----------------------|
B|-------------x--x-----x|-----------------------|-------------x--x-----x|-----------------------|
G|-------------x--x-----x|-----------------------|-------------x--x-----x|------------12-11-12---|
D|-7-----7-----x--x-----x|-7-----7---------------|-9-----9-----x--x-----x|-9-----9-----x--x--x---|
A|-5-----5-----x--x-----x|-5-----5-----7-----7---|-7-----7-----x--x-----x|-7-----7----10--9-10---|
E|-------------x--x-----x|-------------5-----5---|-------------x--x-----x|-----------------------|
  You've been talking to yourself again. You haven't figured out you're your only friend.

Guitar 1
  D5                      D5          A5          E5                      E5          G
e|-------------x--x-----x|-----------------------|-------------x--x-----x|-----------------------|
B|-------------x--x-----x|-----------------------|-------------x--x-----x|-----------------------|
G|-------------x--x-----x|-----------------------|-------------x--x-----x|-----------------------|
D|-7-----7-----x--x-----x|-7-----7---------------|-9-----9-----x--x-----x|-9-----9----12----12---|
A|-5-----5-----x--x-----x|-5-----5-----7-----7---|-7-----7-----x--x-----x|-7-----7----10----10---|
E|-------------x--x-----x|-------------5-----5---|-------------x--x-----x|-----------------------|
  You've been fighting with yourself again. It's time to give up.

Guitar 1
  D5                      D5          A5          E5                      E5          G  F# G
e|-------------x--x-----x|-----------------------|-------------x--x-----x|-----------------------|
B|-------------x--x-----x|-----------------------|-------------x--x-----x|-----------------------|
G|-------------x--x-----x|-----------------------|-------------x--x-----x|------------12-11-12---|
D|-7-----7-----x--x-----x|-7-----7---------------|-9-----9-----x--x-----x|-9-----9-----x--x--x---|
A|-5-----5-----x--x-----x|-5-----5-----7-----7---|-7-----7-----x--x-----x|-7-----7----10--9-10---|
E|-------------x--x-----x|-------------5-----5---|-------------x--x-----x|-----------------------|
  Brush your teeth, comb your hair, what's left of it. Write a song, see a show, stay relevant.

Guitar 1
  D5                      D5          A5          E5                      A5
e|-------------x--x-----x|-----------------------|-----------------------|-----------------------|
B|-------------x--x-----x|-----------------------|-----------------------|-----------------------|
G|-------------x--x-----x|-----------------------|-9---------------------|-----------------------|
D|-7-----7-----x--x-----x|-7-----7---------------|-9---------------------|-7--------\\\\\\\\\\\\-|
A|-5-----5-----x--x-----x|-5-----5-----7-----7---|-7---------------------|-7--------\pickscrape\-|
E|-------------x--x-----x|-------------5-----5---|-----------------------|-5--------\\\\\\\\\\\\-|
  Sing along to the jam, feel young again. Time to live it up, it's time to live it up


[Chorus]
Guitar 1
  D5                      D5                      G5                      G5
e|-----------------------|-----------------------|-----------------------|-----------------------|
B|-----------------------|-----------------------|-----------------------|-----------------------|
G|-7--7--7--7--7--7--7--7|-7--7--7--7--7--7--7--7|-----------------------|-----------------------|
D|-7--7--7--7--7--7--7--7|-7--7--7--7--7--7--7--7|-5--5--5--5--5--5--5--5|-5--5--5--5--5--5--5--5|
A|-5--5--5--5--5--5--5--5|-5--5--5--5--5--5--5--5|-5--5--5--5--5--5--5--5|-5--5--5--5--5--5--5--5|
E|-----------------------|-----------------------|-3--3--3--3--3--3--3--3|-3--3--3--3--3--3--3--3|
Guitar 2
  F#                      F#          A           G                       G
e|-----------------------|-----------------------|-----------------------|-----------------------|
B|-----------------------|-----------------------|-----------------------|-----------------------|
G|11-11-11-11-11-11-11-11|11-11-11-11-14-14-14-14|12-12-12-12-12-12-12-12|12-12-12-12-12-12-12-12|
D|-x--x--x--x--x--x--x--x|-x--x--x--x--x--x--x--x|-x--x--x--x--x--x--x--x|-x--x--x--x--x--x--x--x|
A|-9--9--9--9--9--9--9--9|-9--9--9--9-12-12-12-12|10-10-10-10-10-10-10-10|10-10-10-10-10-10-10-10|
E|-----------------------|-----------------------|-----------------------|-----------------------|
  Every time it feels just like I lost it, ooh oh

Guitar 1
  D5                      D5                      G5                      A5
e|-----------------------|-----------------------|-----------------------|-----------------------|
B|-----------------------|-----------------------|-----------------------|-----------------------|
G|-7--7--7--7--7--7--7--7|-7--7--7--7--7--7--7--7|-----------------------|-----------------------|
D|-7--7--7--7--7--7--7--7|-7--7--7--7--7--7--7--7|-5--5--5--5--5--5--5--5|----7--------7-----7---|
A|-5--5--5--5--5--5--5--5|-5--5--5--5--5--5--5--5|-5--5--5--5--5--5--5--5|-7--7-----7--7-----7---|
E|-----------------------|-----------------------|-3--3--3--3--3--3--3--3|-5--5-----5--5-----5---|
                                                                       PM¦--¦     ¦--¦
Guitar 2
  F#                      F#          A           G                       A
e|-----------------------|-----------------------|-----------------------|-----------------------|
B|-----------------------|-----------------------|-----------------------|-----------------------|
G|11-11-11-11-11-11-11-11|11-11-11-11-14-14-14-14|12-12-12-12-12-12-12-12|---14-------14----14---|
D|-x--x--x--x--x--x--x--x|-x--x--x--x--x--x--x--x|-x--x--x--x--x--x--x--x|----x--------x-----x---|
A|-9--9--9--9--9--9--9--9|-9--9--9--9-12-12-12-12|10-10-10-10-10-10-10-10|12-12----12-12----12---|
E|-----------------------|-----------------------|-----------------------|-----------------------|
                                                                       PM¦--¦     ¦--¦
  I realize that my head is just so full of sh-sh-sh-shit-shit

Guitar 1
  D5                      D5                      G5                      A5
e|-----------------------|-----------------------|-----------------------|-----------------------|
B|-----------------------|-----------------------|-----------------------|-----------------------|
G|-7--7--7--7--7--7--7--7|-7--7--7--7--7--7--7--7|-----------------------|-----------------------|
D|-7--7--7--7--7--7--7--7|-7--7--7--7--7--7--7--7|-5--5--5--5--5--5--5--5|-7--7--7--7--7--7--7--7|
A|-5--5--5--5--5--5--5--5|-5--5--5--5--5--5--5--5|-5--5--5--5--5--5--5--5|-7--7--7--7--7--7--7--7|
E|-----------------------|-----------------------|-3--3--3--3--3--3--3--3|-5--5--5--5--5--5--5--5|
Guitar 2
  F#                      F#          A           G                       A
e|-----------------------|-----------------------|-----------------------|-----------------------|
B|-----------------------|-----------------------|-----------------------|-----------------------|
G|11-11-11-11-11-11-11-11|11-11-11-11-14-14-14-14|12-12-12-12-12-12-12-12|14-14-14-14-14-14-14-14|
D|-x--x--x--x--x--x--x--x|-x--x--x--x--x--x--x--x|-x--x--x--x--x--x--x--x|-x--x--x--x--x--x--x--x|
A|-9--9--9--9--9--9--9--9|-9--9--9--9-12-12-12-12|10-10-10-10-10-10-10-10|12-12-12-12-12-12-12-12|
E|-----------------------|-----------------------|-----------------------|-----------------------|
  Who gives a damn about the songs you're playing? Just saying

Guitar 1
  G5                      A5                      F#/A#                   B5
e|-----------------------|-----------------------|-----------------------|-----------------------|
B|-----------------------|-----------------------|-----------------------|-----------------------|
G|-----------------------|-----------------------|-----------------------|-----------------------|
D|-5-----5-----5-----5---|-7-----7-----7-----7---|-8-----8-----8-----8---|-9-----9-----9-----9---|
A|-5-----5-----5-----5---|-7-----7-----7-----7---|-9-----9-----9-----9---|-9-----9-----9-----9---|
E|-3-----3-----3-----3---|-5-----5-----5-----5---|-6-----6-----6-----6---|-7-----7-----7-----7---|
Guitar 2
  B                       C#                      C#                      D
e|-----------------------|-----------------------|-----------------------|-----------------------|
B|-----------------------|-----------------------|-----------------------|-----------------------|
G|-4-----4-----4-----4---|-6-----6-----6-----6---|-6-----6-----6-----6---|-7-----7-----7-----7---|
D|-x-----x-----x-----x---|-x-----x-----x-----x---|-x-----x-----x-----x---|-x-----x-----x-----x---|
A|-2-----2-----2-----2---|-4-----4-----4-----4---|-4-----4-----4-----4---|-5-----5-----5-----5---|
E|-----------------------|-----------------------|-----------------------|-----------------------|
  Sometimes I feel so old, yeah, am I deaf? Or am I just a little left

Guitar 1
  G5                      G5
e|-----------------------|-----------------------|
B|-----------------------|-----------------------|
G|-----------------------|-----------------------|
D|-5-----5-----5-----5---|-5\--------------------|
A|-5-----5-----5-----5---|-5\--------------------|
E|-3-----3-----3-----3---|-3\--------------------|
Guitar 2
  D                       D
e|-----------------------|-----------------------|
B|-----------------------|-----------------------|
G|-7-----7-----7-----7---|-7\--------------------|
D|-x-----x-----x-----x---|-x---------------------|
A|-5-----5-----5-----5---|-5\--------------------|
E|-----------------------|-----------------------|
  Of what they listen to today?


[Fill]
Guitar 1
  D5/A                    D5/A        A           E5/B                    E5/B        G  F# G
e|-------------x--x-----x|-----------------------|-------------x--x-----x|-----------------------|
B|-------------x--x-----x|-----------------------|-------------x--x-----x|-----------------------|
G|-------------x--x-----x|-----------------------|-------------x--x-----x|------------12-11-12---|
D|-7-----7-----x--x-----x|-7-----7-----7-----7---|-9-----9-----x--x-----x|-9-----9-----x--x--x---|
A|-5-----5-----x--x-----x|-5-----5-----7-----7---|-7-----7-----x--x-----x|-7-----7----10--9-10---|
E|-5-----5-----x--x-----x|-5-----5-----5-----5---|-7-----7-----x--x-----x|-7-----7---------------|
  Na na, na na na na. Na na, na na na na.

Guitar 1
  D5/A                    D5/A        A           E5/B                    E5/B
e|-------------x--x-----x|-----------------------|-------------x--x-----x|-------------x--x--x--x|
B|-------------x--x-----x|-----------------------|-------------x--x-----x|-------------x--x--x--x|
G|-------------x--x-----x|-----------------------|-------------x--x-----x|-------------x--x--x--x|
D|-7-----7-----x--x-----x|-7-----7-----7-----7---|-9-----9-----x--x-----x|-9-----9-----x--x--x--x|
A|-5-----5-----x--x-----x|-5-----5-----7-----7---|-7-----7-----x--x-----x|-7-----7-----x--x--x--x|
E|-5-----5-----x--x-----x|-5-----5-----5-----5---|-7-----7-----x--x-----x|-7-----7-----x--x--x--x|
  Na na, na na na na. Na na, na na na na.


[Verse]
Guitar 1
  D5                      D5          A5          E5                      E5          G  F# G
e|-------------x--x-----x|-----------------------|-------------x--x-----x|-----------------------|
B|-------------x--x-----x|-----------------------|-------------x--x-----x|-----------------------|
G|-------------x--x-----x|-----------------------|-------------x--x-----x|------------12-11-12---|
D|-7-----7-----x--x-----x|-7-----7---------------|-9-----9-----x--x-----x|-9-----9-----x--x--x---|
A|-5-----5-----x--x-----x|-5-----5-----7-----7---|-7-----7-----x--x-----x|-7-----7----10--9-10---|
E|-------------x--x-----x|-------------5-----5---|-------------x--x-----x|-----------------------|
  Video record every show you see. Sing along but you aren't here with me.

Guitar 1
  D5                      D5          A5          E5                      E5
e|-------------x--x-----x|-----------------------|-------------x--x-----x|-------------x--x--x--x|
B|-------------x--x-----x|-----------------------|-------------x--x-----x|-------------x--x--x--x|
G|-------------x--x-----x|-----------------------|-------------x--x-----x|-------------x--x--x--x|
D|-7-----7-----x--x-----x|-7-----7---------------|-9-----9-----x--x-----x|-9-----9-----x--x--x--x|
A|-5-----5-----x--x-----x|-5-----5-----7-----7---|-7-----7-----x--x-----x|-7-----7-----x--x--x--x|
E|-------------x--x-----x|-------------5-----5---|-------------x--x-----x|-------------x--x--x--x|
  It's like the whole thing is make believe. Not in this moment.

Guitar 1
  D5                      D5          A5          E5                      E5          G  F# G
e|-------------x--x-----x|-----------------------|-------------x--x-----x|-----------------------|
B|-------------x--x-----x|-----------------------|-------------x--x-----x|-----------------------|
G|-------------x--x-----x|-----------------------|-------------x--x-----x|------------12-11-12---|
D|-7-----7-----x--x-----x|-7-----7---------------|-9-----9-----x--x-----x|-9-----9-----x--x--x---|
A|-5-----5-----x--x-----x|-5-----5-----7-----7---|-7-----7-----x--x-----x|-7-----7----10--9-10---|
E|-------------x--x-----x|-------------5-----5---|-------------x--x-----x|-----------------------|
  At this point, no one is listening, after chorus one everything is boring.

Guitar 1
  D5                      D5          A5          E5                      A5
e|-------------x--x-----x|-----------------------|-----------------------|-----------------------|
B|-------------x--x-----x|-----------------------|-----------------------|-----------------------|
G|-------------x--x-----x|-----------------------|-----------------------|-----------------------|
D|-7-----7-----x--x-----x|-7-----7---------------|-9---------------------|----------\\\\\\\\\\\\-|
A|-5-----5-----x--x-----x|-5-----5-----7-----7---|-7---------------------|-7--------\pickscrape\-|
E|-------------x--x-----x|-------------5-----5---|-----------------------|-5--------\\\\\\\\\\\\-|
  ADD, and ritalin. Is everybody loaded? Is everybody loaded?


[Chorus]
Guitar 1
  D5                      D5                      G5                      G5
e|-----------------------|-----------------------|-----------------------|-----------------------|
B|-----------------------|-----------------------|-----------------------|-----------------------|
G|-7--7--7--7--7--7--7--7|-7--7--7--7--7--7--7--7|-----------------------|-----------------------|
D|-7--7--7--7--7--7--7--7|-7--7--7--7--7--7--7--7|-5--5--5--5--5--5--5--5|-5--5--5--5--5--5--5--5|
A|-5--5--5--5--5--5--5--5|-5--5--5--5--5--5--5--5|-5--5--5--5--5--5--5--5|-5--5--5--5--5--5--5--5|
E|-----------------------|-----------------------|-3--3--3--3--3--3--3--3|-3--3--3--3--3--3--3--3|
Guitar 2
  F#                      F#          A           G                       G
e|-----------------------|-----------------------|-----------------------|-----------------------|
B|-----------------------|-----------------------|-----------------------|-----------------------|
G|11-11-11-11-11-11-11-11|11-11-11-11-14-14-14-14|12-12-12-12-12-12-12-12|12-12-12-12-12-12-12-12|
D|-x--x--x--x--x--x--x--x|-x--x--x--x--x--x--x--x|-x--x--x--x--x--x--x--x|-x--x--x--x--x--x--x--x|
A|-9--9--9--9--9--9--9--9|-9--9--9--9-12-12-12-12|10-10-10-10-10-10-10-10|10-10-10-10-10-10-10-10|
E|-----------------------|-----------------------|-----------------------|-----------------------|
  Every time it feels just like I lost it, ooh oh

Guitar 1
  D5                      D5                      G5                      A5
e|-----------------------|-----------------------|-----------------------|-----------------------|
B|-----------------------|-----------------------|-----------------------|-----------------------|
G|-7--7--7--7--7--7--7--7|-7--7--7--7--7--7--7--7|-----------------------|-----------------------|
D|-7--7--7--7--7--7--7--7|-7--7--7--7--7--7--7--7|-5--5--5--5--5--5--5--5|----7--------7-----7---|
A|-5--5--5--5--5--5--5--5|-5--5--5--5--5--5--5--5|-5--5--5--5--5--5--5--5|-7--7-----7--7-----7---|
E|-----------------------|-----------------------|-3--3--3--3--3--3--3--3|-5--5-----5--5-----5---|
                                                                       PM¦--¦     ¦--¦
Guitar 2
  F#                      F#          A           G                       A
e|-----------------------|-----------------------|-----------------------|-----------------------|
B|-----------------------|-----------------------|-----------------------|-----------------------|
G|11-11-11-11-11-11-11-11|11-11-11-11-14-14-14-14|12-12-12-12-12-12-12-12|---14-------14----14---|
D|-x--x--x--x--x--x--x--x|-x--x--x--x--x--x--x--x|-x--x--x--x--x--x--x--x|----x--------x-----x---|
A|-9--9--9--9--9--9--9--9|-9--9--9--9-12-12-12-12|10-10-10-10-10-10-10-10|12-12----12-12----12---|
E|-----------------------|-----------------------|-----------------------|-----------------------|
                                                                       PM¦--¦     ¦--¦
  I realize that my head is just so full of sh-sh-sh-shit-shit

Guitar 1
  D5                      D5                      G5                      A5
e|-----------------------|-----------------------|-----------------------|-----------------------|
B|-----------------------|-----------------------|-----------------------|-----------------------|
G|-7--7--7--7--7--7--7--7|-7--7--7--7--7--7--7--7|-----------------------|-----------------------|
D|-7--7--7--7--7--7--7--7|-7--7--7--7--7--7--7--7|-5--5--5--5--5--5--5--5|-7--7--7--7--7--7--7--7|
A|-5--5--5--5--5--5--5--5|-5--5--5--5--5--5--5--5|-5--5--5--5--5--5--5--5|-7--7--7--7--7--7--7--7|
E|-----------------------|-----------------------|-3--3--3--3--3--3--3--3|-5--5--5--5--5--5--5--5|
Guitar 2
  F#                      F#          A           G                       A
e|-----------------------|-----------------------|-----------------------|-----------------------|
B|-----------------------|-----------------------|-----------------------|-----------------------|
G|11-11-11-11-11-11-11-11|11-11-11-11-14-14-14-14|12-12-12-12-12-12-12-12|14-14-14-14-14-14-14-14|
D|-x--x--x--x--x--x--x--x|-x--x--x--x--x--x--x--x|-x--x--x--x--x--x--x--x|-x--x--x--x--x--x--x--x|
A|-9--9--9--9--9--9--9--9|-9--9--9--9-12-12-12-12|10-10-10-10-10-10-10-10|12-12-12-12-12-12-12-12|
E|-----------------------|-----------------------|-----------------------|-----------------------|
  Who gives a damn about the songs you're playing? Just saying

Guitar 1
  G5                      A5                      F#/A#                   B5
e|-----------------------|-----------------------|-----------------------|-----------------------|
B|-----------------------|-----------------------|-----------------------|-----------------------|
G|-----------------------|-----------------------|-----------------------|-----------------------|
D|-5-----5-----5-----5---|-7-----7-----7-----7---|-8-----8-----8-----8---|-9-----9-----7-----7---|
A|-5-----5-----5-----5---|-7-----7-----7-----7---|-9-----9-----9-----9---|-9-----9-----7-----7---|
E|-3-----3-----3-----3---|-5-----5-----5-----5---|-6-----6-----6-----6---|-7-----7-----5-----5---|
Guitar 2
  B                       C#                      C#                      D
e|-----------------------|-----------------------|-----------------------|-----------------------|
B|-----------------------|-----------------------|-----------------------|-----------------------|
G|-4-----4-----4-----4---|-6-----6-----6-----6---|-6-----6-----6-----6---|-7-----7-----6-----6---|
D|-x-----x-----x-----x---|-x-----x-----x-----x---|-x-----x-----x-----x---|-x-----x-----x-----x---|
A|-2-----2-----2-----2---|-4-----4-----4-----4---|-4-----4-----4-----4---|-5-----5-----4-----4---|
E|-----------------------|-----------------------|-----------------------|-----------------------|
  Sometimes I feel so old, yeah, am I deaf? Or am I just a little left

Guitar 1
  G5                      A5
e|-----------------------|-----------------------|
B|-----------------------|-----------------------|
G|-----------------------|-----------------------|
D|-5-----5-----5-----5---|-7-----7-----7-----7---|
A|-5-----5-----5-----5---|-7-----7-----7-----7---|
E|-3-----3-----3-----3---|-5-----5-----5-----5---|
Guitar 2
  B                       C#
e|-----------------------|-----------------------|
B|-----------------------|-----------------------|
G|-4-----4-----4-----4---|-6-----6-----6-----6---|
D|-x-----x-----x-----x---|-x-----x-----x-----x---|
A|-2-----2-----2-----2---|-4-----4-----4-----4---|
E|-----------------------|-----------------------|
  Of what they listen to today?

[Bridge]
Guitar 1
  F#/A#                   B5           A5         G5                      D5
e|-----------------------|-----------------------|-----------------------|-----------------------|
B|-----------------------|-----------------------|-----------------------|-----------------------|
G|-----------------------|-----------------------|-----------------------|-7-----7-----7-----7---|
D|-8-----8-----8-----8---|-9-----9-----7-----7---|-5-----5-----5-----5---|-7-----7-----7-----7---|
A|-9-----9-----9-----9---|-9-----9-----7-----7---|-5-----5-----5-----5---|-5-----5-----5-----5---|
E|-6-----6-----6-----6---|-7-----7-----5-----5---|-3-----3-----3-----3---|-----------------------|
Guitar 2
  C#                      F#           A          B                       D
e|-----------------------|-----------------------|-----------------------|-----------------------|
B|-----------------------|-7-----------10--------|-----------------------|15N--------------------|
G|-6-----6-----6-----6---|-9b11--------12b14-----|15N--------------------|-----------------------|
D|-x-----x-----x-----x---|-----------------------|-----------------------|-----------------------|
A|-4-----4-----4-----4---|-----------------------|-----------------------|-----------------------|
E|-----------------------|-----------------------|-----------------------|-----------------------|
   I know I sound just like my dad did to me

Guitar 1
  F#5                     B5          A5          G5                      G5
e|-----------------------|-----------------------|-----------------------|-----------------------|
B|-----------------------|-----------------------|-----------------------|-----------------------|
G|-----------------------|-----------------------|-----------------------|-----------------------|
D|-4-----4-----4-----4---|-9-----9-----7-----7---|-5-----5-----5-----5---|-5-----5-----5-----5---|
A|-4-----4-----4-----4---|-9-----9-----7-----7---|-5-----5-----5-----5---|-5-----5-----5-----5---|
E|-2-----2-----2-----2---|-7-----7-----5-----5---|-3-----3-----3-----3---|-3-----3-----3-----3---|
Guitar 2
  C#                      F#          E           B                       D
e|-----------------------|14N---------12N--------|-----------------------|-----------------------|
B|14N--------------------|-----------------------|12N--------------------|15N--------------------|
G|-----------------------|-----------------------|-----------------------|-----------------------|
D|-----------------------|-----------------------|-----------------------|-----------------------|
A|-----------------------|-----------------------|-----------------------|-----------------------|
E|-----------------------|-----------------------|-----------------------|-----------------------|
  Have I found a way out of the misery?

Guitar 1
  G#
e|-----------------------|-----------------------|-----------------------|-----------------------|
B|-----------------------|-----------------------|-----------------------|-----------------------|
G|-----------------------|-----------------------|-----------------------|-----------------------|
D|-6---------------------|-----------------------|-----------------------|-----------------------|
A|-6---------------------|-----------------------|-----------------------|-----------------------|
E|-4---------------------|-----------------------|-----------------------|-----------------------|
Guitar 2
e|-----------------------|-----------------------|-----------------------|-----------------------|
B|-----------------------|-----------------------|-----------------------|-----------------------|
G|13---------------------|-----------------------|-----------------------|-----------------------|
D|-----------------------|-----------------------|-----------------------|-----------------------|
A|-----------------------|-----------------------|-----------------------|-----------------------|
E|-----------------------|-----------------------|-----------------------|-----------------------|
Music used to make me free, The Who, Black Flag, Dead Kennedys. Does anyone have something left to say?

[Chorus]
Guitar 1
  D5                      D5                      G5                      G5
e|-----------------------|-----------------------|-----------------------|-----------------------|
B|-----------------------|-----------------------|-----------------------|-----------------------|
G|-7--7--7--7--7--7--7--7|-7--7--7--7--7--7--7--7|-----------------------|-----------------------|
D|-7--7--7--7--7--7--7--7|-7--7--7--7--7--7--7--7|-5--5--5--5--5--5--5--5|-5--5--5--5--5--5--5--5|
A|-5--5--5--5--5--5--5--5|-5--5--5--5--5--5--5--5|-5--5--5--5--5--5--5--5|-5--5--5--5--5--5--5--5|
E|-----------------------|-----------------------|-3--3--3--3--3--3--3--3|-3--3--3--3--3--3--3--3|
Guitar 2
  F#                      F#          A           G                       G
e|-----------------------|-----------------------|-----------------------|-----------------------|
B|-----------------------|-----------------------|-----------------------|-----------------------|
G|11-11-11-11-11-11-11-11|11-11-11-11-14-14-14-14|12-12-12-12-12-12-12-12|12-12-12-12-12-12-12-12|
D|-x--x--x--x--x--x--x--x|-x--x--x--x--x--x--x--x|-x--x--x--x--x--x--x--x|-x--x--x--x--x--x--x--x|
A|-9--9--9--9--9--9--9--9|-9--9--9--9-12-12-12-12|10-10-10-10-10-10-10-10|10-10-10-10-10-10-10-10|
E|-----------------------|-----------------------|-----------------------|-----------------------|
  Every time it feels just like I lost it, ooh oh

Guitar 1
  D5                      D5                      G5                      A5
e|-----------------------|-----------------------|-----------------------|-----------------------|
B|-----------------------|-----------------------|-----------------------|-----------------------|
G|-7--7--7--7--7--7--7--7|-7--7--7--7--7--7--7--7|-----------------------|-----------------------|
D|-7--7--7--7--7--7--7--7|-7--7--7--7--7--7--7--7|-5--5--5--5--5--5--5--5|----7--------7-----7---|
A|-5--5--5--5--5--5--5--5|-5--5--5--5--5--5--5--5|-5--5--5--5--5--5--5--5|-7--7-----7--7-----7---|
E|-----------------------|-----------------------|-3--3--3--3--3--3--3--3|-5--5-----5--5-----5---|
                                                                       PM¦--¦     ¦--¦
Guitar 2
  F#                      F#          A           G                       A
e|-----------------------|-----------------------|-----------------------|-----------------------|
B|-----------------------|-----------------------|-----------------------|-----------------------|
G|11-11-11-11-11-11-11-11|11-11-11-11-14-14-14-14|12-12-12-12-12-12-12-12|---14-------14----14---|
D|-x--x--x--x--x--x--x--x|-x--x--x--x--x--x--x--x|-x--x--x--x--x--x--x--x|----x--------x-----x---|
A|-9--9--9--9--9--9--9--9|-9--9--9--9-12-12-12-12|10-10-10-10-10-10-10-10|12-12----12-12----12---|
E|-----------------------|-----------------------|-----------------------|-----------------------|
                                                                       PM¦--¦     ¦--¦
  I realize that my head is just so full of sh-sh-sh-shit-shit

Guitar 1
  D5                      D5                      G5                      A5
e|-----------------------|-----------------------|-----------------------|-----------------------|
B|-----------------------|-----------------------|-----------------------|-----------------------|
G|-7--7--7--7--7--7--7--7|-7--7--7--7--7--7--7--7|-----------------------|-----------------------|
D|-7--7--7--7--7--7--7--7|-7--7--7--7--7--7--7--7|-5--5--5--5--5--5--5--5|-7--7--7--7--7--7--7--7|
A|-5--5--5--5--5--5--5--5|-5--5--5--5--5--5--5--5|-5--5--5--5--5--5--5--5|-7--7--7--7--7--7--7--7|
E|-----------------------|-----------------------|-3--3--3--3--3--3--3--3|-5--5--5--5--5--5--5--5|
Guitar 2
  F#                      F#          A           G                       A
e|-----------------------|-----------------------|-----------------------|-----------------------|
B|-----------------------|-----------------------|-----------------------|-----------------------|
G|11-11-11-11-11-11-11-11|11-11-11-11-14-14-14-14|12-12-12-12-12-12-12-12|14-14-14-14-14-14-14-14|
D|-x--x--x--x--x--x--x--x|-x--x--x--x--x--x--x--x|-x--x--x--x--x--x--x--x|-x--x--x--x--x--x--x--x|
A|-9--9--9--9--9--9--9--9|-9--9--9--9-12-12-12-12|10-10-10-10-10-10-10-10|12-12-12-12-12-12-12-12|
E|-----------------------|-----------------------|-----------------------|-----------------------|
  Who gives a damn about the songs you're playing? Just saying

Guitar 1
  G5                      A5                      F#/A#                   B5
e|-----------------------|-----------------------|-----------------------|-----------------------|
B|-----------------------|-----------------------|-----------------------|-----------------------|
G|-----------------------|-----------------------|-----------------------|-----------------------|
D|-5-----5-----5-----5---|-7-----7-----7-----7---|-8-----8-----8-----8---|-9-----9-----9-----9---|
A|-5-----5-----5-----5---|-7-----7-----7-----7---|-9-----9-----9-----9---|-9-----9-----9-----9---|
E|-3-----3-----3-----3---|-5-----5-----5-----5---|-6-----6-----6-----6---|-7-----7-----7-----7---|
Guitar 2
  B                       C#                      C#                      D
e|-----------------------|-----------------------|-----------------------|-----------------------|
B|-----------------------|-----------------------|-----------------------|-----------------------|
G|-4-----4-----4-----4---|-6-----6-----6-----6---|-6-----6-----6-----6---|-7-----7-----7-----7---|
D|-x-----x-----x-----x---|-x-----x-----x-----x---|-x-----x-----x-----x---|-x-----x-----x-----x---|
A|-2-----2-----2-----2---|-4-----4-----4-----4---|-4-----4-----4-----4---|-5-----5-----5-----5---|
E|-----------------------|-----------------------|-----------------------|-----------------------|
  Sometimes I feel so old, yeah, am I deaf? Or am I just a little left

Guitar 1
  G5                      G5
e|-----------------------|-----------------------|
B|-----------------------|-----------------------|
G|-----------------------|-----------------------|
D|-5-----5-----5-----5---|-5\--------------------|
A|-5-----5-----5-----5---|-5\--------------------|
E|-3-----3-----3-----3---|-3\--------------------|
Guitar 2
  D                       D
e|-----------------------|-----------------------|
B|-----------------------|-----------------------|
G|-7-----7-----7-----7---|-7\--------------------|
D|-x-----x-----x-----x---|-x---------------------|
A|-5-----5-----5-----5---|-5\--------------------|
E|-----------------------|-----------------------|
  Of what they listen to today?

[Outro]
Guitar 1
  D5/A                    D5/A        A           E5/B                    E5/B        G  F# G
e|-------------x--x-----x|-----------------------|-------------x--x-----x|-----------------------|
B|-------------x--x-----x|-----------------------|-------------x--x-----x|-----------------------|
G|-------------x--x-----x|-----------------------|-------------x--x-----x|------------12-11-12---|
D|-7-----7-----x--x-----x|-7-----7-----7-----7---|-9-----9-----x--x-----x|-9-----9-----x--x--x---|
A|-5-----5-----x--x-----x|-5-----5-----7-----7---|-7-----7-----x--x-----x|-7-----7----10--9-10---|
E|-5-----5-----x--x-----x|-5-----5-----5-----5---|-7-----7-----x--x-----x|-7-----7---------------|
  Na na, na na na na. Na na, na na na na.

Guitar 1
  D5/A                    D5/A        A           E5/B                    E5/B
e|-------------x--x-----x|-----------------------|-------------x--x-----x|-------------x--x--x--x|
B|-------------x--x-----x|-----------------------|-------------x--x-----x|-------------x--x--x--x|
G|-------------x--x-----x|-----------------------|-------------x--x-----x|-------------x--x--x--x|
D|-7-----7-----x--x-----x|-7-----7-----7-----7---|-9-----9-----x--x-----x|-9-----9-----x--x--x--x|
A|-5-----5-----x--x-----x|-5-----5-----7-----7---|-7-----7-----x--x-----x|-7-----7-----x--x--x--x|
E|-5-----5-----x--x-----x|-5-----5-----5-----5---|-7-----7-----x--x-----x|-7-----7-----x--x--x--x|
  Na na, na na na na. Na na, na na na na.


************************************

| x   Dead note
| /   Slide up
| \   Slide down
| PM  Palm mute
| N   Tremolo

************************************
Suggest correction
Creating personal tab
Creating personal tab
You can edit any tab online and save it as your Personal.

You can edit, replace or remove any tab part or add personal notes – all changes will be seen only by you.

Personal tabs can be accessed anytime from any device, even offline.
Learn more »
Give kudos to tab author, rate the tab!
1 2 3 4 5
comments
print report bad tab
guest
You may want to rate the tab now too:
select rating
Wanna post a correction for this tab? Suggest correction