Oops, an error
Loading. Please wait.

Decision Tab

version 1
version 1

Whole song

Interactive

1,203 views 1 this week
2 commentsread comments
1 2 3 4 5
1 last vote to show rating
add to favorites
×
Save as Personal and add changes to this tab that will be seen only by you. Learn more ›
×
You can save this tab as Personal to edit and correct it or add notes. All changes will be seen only by you. Learn more »
save as personal
new!
launch autoscroll
font size
0
reset
how to read this tab
guitar tuner
Autoscroll
slow
fast
+/-
esc
set tempo
stop
Author
Hi punks! this is my first submited tab
Què hay punks! esta es mi primer tab

-whole song with distorsion          .=p.m
-toda la cancion con distorsion      <=let ring (dejar sonar)

intro/verse(intro/verso)both guitars(ambas liras)
e------------------------------------------------------|
b------------------------------------------------------|
g-5555-------------------555---------------55----------|
d-5555-7777-5555-3333----555-777-555-333---55-77-55-33-|
a-3333-7777-5555-3333----333-777-555-333---33-77-55-33-|
e-....-5555-3333-1111----..--555-333-111------55-33-11-|
       .... .... ....        ..  ..  ..

pre-chorus(pre-coro)gt.1/g.t 2:
e-----------------------/-3-0-3-0-3-0-------------|
b-----------------------/--3-1-3-1-3-1------------|
g-----------------------/----------------12-12-12-|
d-5<7<5<7<55555555------/-----------------x--x--x-|
a-5<7<5<7<55555555------/----------------10-10-10-|
e-3<5<3<5<33333333------/-------------------------|
          ........

chorus(coro)both guitars(ambas liras)
e---------------------|
b---------------------|
g-5555----------------|
d-5555-5555-7777-3333-|
a-3333-5555-7777-3333-|
e------3333-5555-1111-|

post-chorus(post-coro)"that i have been the one"
e----------------------------------------------|
b----------------------------------------------|
g----------------------------------------------|
d-77---55---33---------------------------------|
a-77---55---33---------------------------------|
e-55---33---11---------------------------------|

then(despues):

verse(verso)
pre-chorus(pre-coro)
chorus(coro)
post-chorus(post-coro)

bridge(puente)
e----------------------------|
b----------------------------|
g-------55-44-22-------------|
d-2<-4<-55-44-22-4<-55555555-|
a-2<-4<-33-22-00-4<-55555555-|
e-0<-2<----------2<-33333333-|
                    ........

pre-solo gt. 1      gt.2:
e-------------      e----------------|
b-------------      b-11111111111111-|
g-55----------      g----------------|
d-55-77-55-33-      d----------------|
a-33-77-55-33-      a----------------|
e----55-33-11-      e----------------|

solo:(the other gt. plays chorus)
e---------------------------|
b---------------------------|
g---------------------------|
d-10/-2-0--2-0----2-0--2-0--|
a----3----3---3-33---33---3-|
e---------------------------|

breakdown
e-----------                                    e----------|
b-----------                                    b----------|
g----------- x2 times(dos veces)then(entonces): g----------|
d-5555-7777-                                    d-55555555-|
a-5555-7777-                                    a-55555555-|
e-3333-5555-                                    e-33333333-|
                                                  ........

 breakdown part2(la kebracion parte 2)/ outro
e--------------------                 /----------------------------------|
b--------------------                 /----------------------------------|
g-5555---------------                 /"-----x2-------------"------------|
d-5555-5555-7777-3333                 /-7777-9999-10-10-10-10-777-222-4--|
a-3333-5555-7777-3333                 /-7777-9999--8--8--8--8-777-222-4--|
e-....-3333-5555-1111                 /-5555-7777--8--8--8--8-555-000-2--|
       .... .... ....

outro gt.2:

e-2/5-5/7-8-2/5-5/7-8<---|     
Suggest correction
Give kudos to tab author, rate the tab!
1 2 3 4 5
comments
print report bad tab
2 comments total.
0 reply
pers_860725 131 Jan 11, 2005 07:00 PM

Buena tab, Mocos a todos los gingos ojetes que piensan que los mexicanos no sabemos tablaturear (tkd_chava@hotmail.com)

0 reply
redsoxxplayer 514 Oct 23, 2006 11:06 AM

I think the chorus does something like this for the lead guitar
------------------------
------------------------
-5555-------------------
-5555-5555----2-0-------
-3333-5555--3-----3-----
------3333--------------

but other than that its 100% perfect

guest
You may want to rate the tab now too:
select rating
Wanna post a correction for this tab? Suggest correction