Oops, an error
Loading. Please wait.

Get Up Tab

version 1
version 1

Whole song

5,326 views 6 this week
no commentswrite comment
1 2 3 4 5
excellent!
x 5
add to favorites
launch autoscroll
font size
0
reset
how to read this tab
guitar tuner
Autoscroll
slow
fast
+/-
esc
set tempo
stop
Help us to improve Ultimate-Guitar.com Take our survey!
×
Author
Intro
------------------------------|
------------------------------|
------------------------------|
------------------------------|
---4-----4---777-7-7-7---6----|
------4--------------------7--|

------------------------------|
------------------------------|
------------------------------|
------------------------------|
---4-----4---777-9-9-9---7-6--|
------4-----------------------|

Verse/Chorus
-4----5----7----7-----|
-5----5----9----7-----|
-6----6----9----6-----| Play with a ska rythm
-6----7----9----9-----|
-4----7----7----9-----|
------5---------7-----|

Pre Chorus/Bridge
End of last Chorus
-----------------|
-----------------|
-----------------|
-9--9--9--9--9---|
-9--9--9--9--9---|
-7--7--7--7--7---|

Bridge
-----------------------------------------------------------|
-----------------------------------------------------------|
-6-6-6-6-9-9-9-9-----------------------6-x-6-------4-4-4---|
-6-6-6-6-9-9-9-9-7-7-7-7-2-2-2-2-4-x-4-6-x-6-7-7-7-4-4-4---| X 2
-4-4-4-4-7-7-7-7-7-7-7-7-2-2-2-2-4-x-4-4-x-4-7-7-7-2-2-2---|
-----------------5-5-5-5-0-0-0-0-2-x-2-------5-5-5---------|
NOTE* On the 2nd time through play last chord more

Outro
---------------------------------|
---------------------------------|
---------------------------------|
---------------------------------|
---4-----4---777-7-7-7---6---4/--|
------4--------------------7-----|
Suggest correction
comments
print report bad tab
guest
You may want to rate the tab now too:
select rating
Wanna post a correction for this tab? Suggest correction