Oops, an error
Loading. Please wait.

Get What I Need tab

34 views 6 this week
no commentswrite comment
1 2 3 4 5
2 more votes to show rating
add to favorites
×
Save as Personal and add changes to this tab that will be seen only by you. Learn more ›
×
You can save this tab as Personal to edit and correct it or add notes. All changes will be seen only by you. Learn more »
launch autoscroll
font size
0
reset
how to read this tab
guitar tuner
edit
Autoscroll
slow
fast
+/-
esc
set tempo
stop
Artist: Goldfinger
Song: Get What I Need
Album: The Knife [2017]

[Intro]
Guitar 1 - Ska uptrokes (Clean)
  D                       G            A          D                       G           A
      .    .      .           .           .     .     .     .     .           .           .     .
e|-----------------------|-----------------------|-----------------------|-----------------------|
B|----7-----7-----7-----7|/8--8-----8/10-10----10|----7-----7-----7-----7|/8--8-----8/10-10----10|
G|----7-----7-----7-----7|/7--7-----7/-9--9-----9|----7-----7-----7-----7|/7--7-----7/-9--9-----9|
D|----7-----7-----7-----7|/5--5-----5/-7--7-----7|----7-----7-----7-----7|/5--5-----5/-7--7-----7|
A|-----------------------|/5--------5/-7---------|-----------------------|/5--------5/-7---------|
E|-----------------------|-----------------------|-----------------------|-----------------------|
Guitar 2 (Distortion)
  D                       G            A           D                       G           A
e|-----------------------|-----------------------|-----------------------|-----------------------|
B|-----------------------|-----------------------|-----------------------|-----------------------|
G|-7\--------------------|-----------------------|-7\--------------------|-----------------------|
D|-7\--------------------|-5--5-----7-----7------|-7\--------------------|-5--5-----7-----7------|
A|-5\--------------------|-5--5-----7-----7------|-5\--------------------|-5--5-----7-----7------|
E|-----------------------|-3--3-----5-----5------|-----------------------|-3--3-----5-----5------|

Guitar 1 - Ska uptrokes (Clean)
  D                       G           A           E                       G
      .     .     .           .           .     .
e|-----------------------|-----------------------|-----------------------|-----------------------|
B|----7-----7-----7-----7|/8--8-----8/10-10----10|-5---------------------|-8---------------------|
G|----7-----7-----7-----7|/7--7-----7/-9--9-----9|-4---------------------|-7---------------------|
D|----7-----7-----7-----7|/5--5-----5/-7--7-----7|-2---------------------|-5---------------------|
A|-----------------------|/5--------5/-7---------|-2---------------------|-5---------------------|
E|-----------------------|-----------------------|-----------------------|-----------------------|
Guitar 2 (Distortion)
  D                       G            A           D                       G
e|-----------------------|-----------------------|-----------------------|-----------------------|
B|-----------------------|-----------------------|-----------------------|-----------------------|
G|-7\--------------------|-----------------------|-----------------------|-----------------------|
D|-7\--------------------|-5--5-----7-----7------|-2---------------------|-5---------------------|
A|-5\--------------------|-5--5-----7-----7------|-2---------------------|-5---------------------|
E|-----------------------|-3--3-----5-----5------|-0---------------------|-3---------------------|

Guitar 1 - Ska uptrokes (Clean)
  D                       G           A           D                       G           A
      .    .      .           .           .     .     .     .     .           .           .     .
e|-----------------------|-----------------------|-----------------------|-----------------------|
B|----7-----7-----7-----7|/8--8-----8/10-10----10|----7-----7-----7-----7|/8--8-----8/10-10----10|
G|----7-----7-----7-----7|/7--7-----7/-9--9-----9|----7-----7-----7-----7|/7--7-----7/-9--9-----9|
D|----7-----7-----7-----7|/5--5-----5/-7--7-----7|----7-----7-----7-----7|/5--5-----5/-7--7-----7|
A|-----------------------|/5--------5/-7---------|-----------------------|/5--------5/-7---------|
E|-----------------------|-----------------------|-----------------------|-----------------------|
Guitar 2 (Distortion)
  D                       G            A           D                       G           A
e|-----------------------|-----------------------|-----------------------|-----------------------|
B|-----------------------|-----------------------|-----------------------|-----------------------|
G|-7\--------------------|-----------------------|-7\--------------------|-----------------------|
D|-7\--------------------|-5--5-----7-----7------|-7\--------------------|-5--5-----7-----7------|
A|-5\--------------------|-5--5-----7-----7------|-5\--------------------|-5--5-----7-----7------|
E|-----------------------|-3--3-----5-----5------|-----------------------|-3--3-----5-----5------|

Guitar 1 - Ska uptrokes (Clean)
  D                       G           A           E                       G
      .     .     .           .           .     .
e|-----------------------|-----------------------|-----------------------|-----------------------|
B|----7-----7-----7-----7|/8--8-----8/10-10----10|-5---------------------|-8---------------------|
G|----7-----7-----7-----7|/7--7-----7/-9--9-----9|-4---------------------|-7---------------------|
D|----7-----7-----7-----7|/5--5-----5/-7--7-----7|-2---------------------|-5---------------------|
A|-----------------------|/5--------5/-7---------|-2---------------------|-5---------------------|
E|-----------------------|-----------------------|-----------------------|-----------------------|
Guitar 2 (Distortion)
  D                       G            A           D                       G
e|-----------------------|-----------------------|-----------------------|-----------------------|
B|-----------------------|-----------------------|-----------------------|-----------------------|
G|-7\--------------------|-----------------------|-----------------------|-----------------------|
D|-7\--------------------|-5--5-----7-----7------|-2---------------------|-5---------------------|
A|-5\--------------------|-5--5-----7-----7------|-2---------------------|-5---------------------|
E|-----------------------|-3--3-----5-----5------|-0---------------------|-3---------------------|


[Verse]
Guitar 1 - Ska uptrokes (Clean)
  D                       G           A           D                       G           A
      .    .      .           .           .     .     .     .     .     .     .     .     .     .
e|-----------------------|-----------------------|-----------------------|-----------------------|
B|----7-----7-----7-----7|/8--8-----8/10-10----10|----7-----7-----7-----7|----8-----8----10----10|
G|----7-----7-----7-----7|/7--7-----7/-9--9-----9|----7-----7-----7-----7|----7-----7-----9-----9|
D|----7-----7-----7-----7|/5--5-----5/-7--7-----7|----7-----7-----7-----7|----5-----5-----7-----7|
A|-----------------------|/5--------5/-7---------|-----------------------|-----------------------|
E|-----------------------|-----------------------|-----------------------|-----------------------|
It was thirty years ago since we smashed the window of that northern California house

Guitar 1 - Ska uptrokes (Clean)
  D                       G              A        Em                      G
     .      .     .     .     .     .     .     .     .     .     .     .     .     .     .     .
e|-----------------------|-----------------------|-----------------------|-----------------------|
B|----7-----7-----7-----7|----8-----8----10----10|----5-----5-----5-----5|----8-----8-----8-----8|
G|----7-----7-----7-----7|----7-----7-----9-----9|----4-----4-----4-----4|----7-----7-----7-----7|
D|----7-----7-----7-----7|----5-----5-----7-----7|----2-----2-----2-----2|----5-----5-----5-----5|
A|-----------------------|-----------------------|-----------------------|-----------------------|
E|-----------------------|-----------------------|-----------------------|-----------------------|
A safety pin in my ear on Cayton's bike playing Bad Brains fucking loud


Guitar 1 - Ska uptrokes (Clean)
  D                       G           A           D                       G           A
      .    .      .           .           .     .     .     .     .     .     .     .     .     .
e|-----------------------|-----------------------|-----------------------|-----------------------|
B|----7-----7-----7-----7|/8--8-----8/10-10----10|----7-----7-----7-----7|----8-----8----10----10|
G|----7-----7-----7-----7|/7--7-----7/-9--9-----9|----7-----7-----7-----7|----7-----7-----9-----9|
D|----7-----7-----7-----7|/5--5-----5/-7--7-----7|----7-----7-----7-----7|----5-----5-----7-----7|
A|-----------------------|/5--------5/-7---------|-----------------------|-----------------------|
E|-----------------------|-----------------------|-----------------------|-----------------------|
Smoking weed on the streets in the California heat. Spray paint on the walls

Guitar 1 - Ska uptrokes (Clean)
  D                       G              A        Em                      G
     .      .     .     .     .     .     .     .     .     .     .     .     .     .     .     .
e|-----------------------|-----------------------|-----------------------|-----------------------|
B|----7-----7-----7-----7|----8-----8----10----10|----5-----5-----5-----5|----8-----8-----8-----8|
G|----7-----7-----7-----7|----7-----7-----9-----9|----4-----4-----4-----4|----7-----7-----7-----7|
D|----7-----7-----7-----7|----5-----5-----7-----7|----2-----2-----2-----2|----5-----5-----5-----5|
A|-----------------------|-----------------------|-----------------------|-----------------------|
E|-----------------------|-----------------------|-----------------------|-----------------------|
Guitar 2 (Distortion)
                                                  E5                      G5
e|-----------------------|-----------------------|-----------------------|-----------------------|
B|-----------------------|-----------------------|-----------------------|-----------------------|
G|-----------------------|-----------------------|-----------------------|-----------------------|
D|-----------------------|-----------------------|-----------------------|-5--5--5--5--5--5--5--5|
A|-----------------------|-----------------------|-2--2--2--2--2--2--2--2|-5--5--5--5--5--5--5--5|
E|-----------------------|-----------------------|-0--0--0--0--0--0--0--0|-3--3--3--3--3--3--3--3|
                                                PM¦-----------------------------gradually release
Stealing booze, cracked a tooth, we had nothing else to lose. Getting wasted to Twist and Crawl

[Chorus]
Guitar 1 (Distortion)
  D5                      A5                      B5                      G5
e|-----------------------|-----------------------|-----------------------|-----------------------|
B|-----------------------|-----------------------|-----------------------|-----------------------|
G|-7--7--7--7--7--7--7--7|-----------------------|-4--4--4--4--4--4--4--4|-----------------------|
D|-7--7--7--7--7--7--7--7|-7--7--7--7--7--7--7--7|-4--4--4--4--4--4--4--4|-5--5--5--5--5--5--5--5|
A|-5--5--5--5--5--5--5--5|-7--7--7--7--7--7--7--7|-2--2--2--2--2--2--2--2|-5--5--5--5--5--5--5--5|
E|-----------------------|-5--5--5--5--5--5--5--5|-----------------------|-3--3--3--3--3--3--3--3|
Guitar 2 (Distortion)
  F#                      E                       F#                      D
e|-----------------------|-----------------------|-----------------------|-----------------------|
B|-----------------------|-----------------------|-----------------------|-----------------------|
G|11-11-11-11-11-11-11-11|-9--9--9--9--9--9--9--9|11-11-11-11-11-11-11-11|-7--7--7--7--7--7--7--7|
D|-x--x--x--x--x--x--x--x|-x--x--x--x--x--x--x--x|-x--x--x--x--x--x--x--x|-x--x--x--x--x--x--x--x|
A|-9--9--9--9--9--9--9--9|-7--7--7--7--7--7--7--7|-9--9--9--9--9--9--9--9|-5--5--5--5--5--5--5--5|
E|-----------------------|-----------------------|-----------------------|-----------------------|
    Someday you'll find everything will be alright

Guitar 1 (Distortion)
  D5                      E5                      B5                      G5
e|-----------------------|-----------------------|-----------------------|-----------------------|
B|-----------------------|-----------------------|-----------------------|-----------------------|
G|-7--7--7--7--7--7--7--7|-9--9--9--9--9--9--9--9|-----------------------|-----------------------|
D|-7--7--7--7--7--7--7--7|-9--9--9--9--9--9--9--9|-9--9--9--9--9--9--9--9|-x--5--5-----x--5--5---|
A|-5--5--5--5--5--5--5--5|-7--7--7--7--7--7--7--7|-9--9--9--9--9--9--9--9|-x--5--5-----x--5--5---|
E|-----------------------|-----------------------|-7--7--7--7--7--7--7--7|-x--3--3-----x--3--3---|
Guitar 2 (Distortion)
  F#                      E                       F#                      D
e|-----------------------|-----------------------|-----------------------|-----------------------|
B|-----------------------|-----------------------|-----------------------|-----------------------|
G|11-11-11-11-11-11-11-11|-9--9--9--9--9--9--9--9|11-11-11-11-11-11-11-11|-x--7--7-----x--7--7---|
D|-x---x---x---x--x--x--x|-x--x--x--x--x--x--x--x|-x--x--x--x--x--x--x--x|-x--x--x-----x--x--x---|
A|-9---9---9---9--9--9--9|-7--7--7--7--7--7--7--7|-9--9--9--9--9--9--9--9|-x--5--5-----x--5--5---|
E|-----------------------|-----------------------|-----------------------|-----------------------|
  I lost myself just to get what I want again. Lost myself just to get what I want again

Guitar 1 (Distortion)
  D5                      A5                      B5                      G5
e|-----------------------|-----------------------|-----------------------|-----------------------|
B|-----------------------|-----------------------|-----------------------|-----------------------|
G|-7--7--7--7--7--7--7--7|-----------------------|-4--4--4--4--4--4--4--4|-----------------------|
D|-7--7--7--7--7--7--7--7|-7--7--7--7--7--7--7--7|-4--4--4--4--4--4--4--4|-5--5--5--5--5--5--5--5|
A|-5--5--5--5--5--5--5--5|-7--7--7--7--7--7--7--7|-2--2--2--2--2--2--2--2|-5--5--5--5--5--5--5--5|
E|-----------------------|-5--5--5--5--5--5--5--5|-----------------------|-3--3--3--3--3--3--3--3|
Guitar 2 (Distortion)
  F#                      E                       F#                      D
e|-----------------------|-----------------------|-----------------------|-----------------------|
B|-----------------------|-----------------------|-----------------------|-----------------------|
G|11-11-11-11-11-11-11-11|-9--9--9--9--9--9--9--9|11-11-11-11-11-11-11-11|-7--7--7--7--7--7--7--7|
D|-x--x--x--x--x--x--x--x|-x--x--x--x--x--x--x--x|-x--x--x--x--x--x--x--x|-x--x--x--x--x--x--x--x|
A|-9--9--9--9--9--9--9--9|-7--7--7--7--7--7--7--7|-9--9--9--9--9--9--9--9|-5--5--5--5--5--5--5--5|
E|-----------------------|-----------------------|-----------------------|-----------------------|
    Someday you'll see everything I left behind

Guitar 1 (Distortion)
  D5                      E5                      B5                      G5
e|-----------------------|-----------------------|-----------------------|-----------------------|
B|-----------------------|-----------------------|-----------------------|-----------------------|
G|-7--7--7--7--7--7--7--7|-9--9--9--9--9--9--9--9|-----------------------|-----------------------|
D|-7--7--7--7--7--7--7--7|-9--9--9--9--9--9--9--9|-9--9--9--9--9--9--9--9|-x--5--5-----x--5--5---|
A|-5--5--5--5--5--5--5--5|-7--7--7--7--7--7--7--7|-9--9--9--9--9--9--9--9|-x--5--5-----x--5--5---|
E|-----------------------|-----------------------|-7--7--7--7--7--7--7--7|-x--3--3-----x--3--3---|
Guitar 2 (Distortion)
  F#                      E                       F#                      D
e|-----------------------|-----------------------|-----------------------|-----------------------|
B|-----------------------|-----------------------|-----------------------|-----------------------|
G|11-11-11-11-11-11-11-11|-9--9--9--9--9--9--9--9|11-11-11-11-11-11-11-11|-x--7--7-----x--7--7---|
D|-x---x---x---x--x--x--x|-x--x--x--x--x--x--x--x|-x--x--x--x--x--x--x--x|-x--x--x-----x--x--x---|
A|-9---9---9---9--9--9--9|-7--7--7--7--7--7--7--7|-9--9--9--9--9--9--9--9|-x--5--5-----x--5--5---|
E|-----------------------|-----------------------|-----------------------|-----------------------|
  I lost myself just to get what I want again. Lost myself just to get - To get what I need


[Fill]
Guitar 1 - Ska uptrokes (Clean)
  D                       G            A          D                       G           A
      .    .      .           .           .     .     .     .     .           .           .     .
e|-----------------------|-----------------------|-----------------------|-----------------------|
B|----7-----7-----7-----7|/8--8-----8/10-10----10|----7-----7-----7-----7|/8--8-----8/10-10----10|
G|----7-----7-----7-----7|/7--7-----7/-9--9-----9|----7-----7-----7-----7|/7--7-----7/-9--9-----9|
D|----7-----7-----7-----7|/5--5-----5/-7--7-----7|----7-----7-----7-----7|/5--5-----5/-7--7-----7|
A|-----------------------|/5--------5/-7---------|-----------------------|/5--------5/-7---------|
E|-----------------------|-----------------------|-----------------------|-----------------------|
Guitar 2 (Distortion)
  D                       G            A           D                       G           A
e|-----------------------|-----------------------|-----------------------|-----------------------|
B|-----------------------|-----------------------|-----------------------|-----------------------|
G|-7\--------------------|-----------------------|-7\--------------------|-----------------------|
D|-7\--------------------|-5--5-----7-----7------|-7\--------------------|-5--5-----7-----7------|
A|-5\--------------------|-5--5-----7-----7------|-5\--------------------|-5--5-----7-----7------|
E|-----------------------|-3--3-----5-----5------|-----------------------|-3--3-----5-----5------|
  To get what I need


[Verse]
Guitar 1 - Ska uptrokes (Clean)
  D                       G           A           D                       G           A
      .    .      .           .           .     .     .     .     .     .     .     .     .     .
e|-----------------------|-----------------------|-----------------------|-----------------------|
B|----7-----7-----7-----7|/8--8-----8/10-10----10|----7-----7-----7-----7|----8-----8----10----10|
G|----7-----7-----7-----7|/7--7-----7/-9--9-----9|----7-----7-----7-----7|----7-----7-----9-----9|
D|----7-----7-----7-----7|/5--5-----5/-7--7-----7|----7-----7-----7-----7|----5-----5-----7-----7|
A|-----------------------|/5--------5/-7---------|-----------------------|-----------------------|
E|-----------------------|-----------------------|-----------------------|-----------------------|
Fade away in my head again


Guitar 1 - Ska uptrokes (Clean)
  D                       G              A        Em                      G
     .      .     .     .     .     .     .     .     .     .     .     .     .     .     .     .
e|-----------------------|-----------------------|-----------------------|-----------------------|
B|----7-----7-----7-----7|----8-----8----10----10|----5-----5-----5-----5|----8-----8-----8-----8|
G|----7-----7-----7-----7|----7-----7-----9-----9|----4-----4-----4-----4|----7-----7-----7-----7|
D|----7-----7-----7-----7|----5-----5-----7-----7|----2-----2-----2-----2|----5-----5-----5-----5|
A|-----------------------|-----------------------|-----------------------|-----------------------|
E|-----------------------|-----------------------|-----------------------|-----------------------|
Watch the days, the months, the years turn to rust

Guitar 1 - Ska uptrokes (Clean)
  D                       G           A           D                       G           A
      .    .      .           .           .     .     .     .     .     .     .     .     .     .
e|-----------------------|-----------------------|-----------------------|-----------------------|
B|----7-----7-----7-----7|/8--8-----8/10-10----10|----7-----7-----7-----7|----8-----8----10----10|
G|----7-----7-----7-----7|/7--7-----7/-9--9-----9|----7-----7-----7-----7|----7-----7-----9-----9|
D|----7-----7-----7-----7|/5--5-----5/-7--7-----7|----7-----7-----7-----7|----5-----5-----7-----7|
A|-----------------------|/5--------5/-7---------|-----------------------|-----------------------|
E|-----------------------|-----------------------|-----------------------|-----------------------|
Skies are gray. Will I be okay?

Guitar 1 - Ska uptrokes (Clean)       (Distortion)
  E                       G                       E5                      G5
      .    .      .           .           .     .
e|-----------------------|-----------------------|-----------------------|-----------------------|
B|----7-----7-----7-----7|----8-----8----10----10|-----------------------|-----------------------|
G|----7-----7-----7-----7|----7-----7-----9-----9|-----------------------|-----------------------|
D|----7-----7-----7-----7|----5-----5-----7-----7|-----------------------|-5--5--5--5--5--5--5--5|
A|-----------------------|-----------------------|-2--2--2--2--2--2--2--2|-5--5--5--5--5--5--5--5|
E|-----------------------|-----------------------|-0--0--0--0--0--0--0--0|-3--3--3--3--3--3--3--3|
                                                PM|-----------------------------gradually release
Watch the memories I made turn to dust


[Chorus]
Guitar 1 (Distortion)
  D5                      A5                      B5                      G5
e|-----------------------|-----------------------|-----------------------|-----------------------|
B|-----------------------|-----------------------|-----------------------|-----------------------|
G|-7--7--7--7--7--7--7--7|-----------------------|-4--4--4--4--4--4--4--4|-----------------------|
D|-7--7--7--7--7--7--7--7|-7--7--7--7--7--7--7--7|-4--4--4--4--4--4--4--4|-5--5--5--5--5--5--5--5|
A|-5--5--5--5--5--5--5--5|-7--7--7--7--7--7--7--7|-2--2--2--2--2--2--2--2|-5--5--5--5--5--5--5--5|
E|-----------------------|-5--5--5--5--5--5--5--5|-----------------------|-3--3--3--3--3--3--3--3|
Guitar 2 (Distortion)
  F#                      E                       F#                      D
e|-----------------------|-----------------------|-----------------------|-----------------------|
B|-----------------------|-----------------------|-----------------------|-----------------------|
G|11-11-11-11-11-11-11-11|-9--9--9--9--9--9--9--9|11-11-11-11-11-11-11-11|-7--7--7--7--7--7--7--7|
D|-x--x--x--x--x--x--x--x|-x--x--x--x--x--x--x--x|-x--x--x--x--x--x--x--x|-x--x--x--x--x--x--x--x|
A|-9--9--9--9--9--9--9--9|-7--7--7--7--7--7--7--7|-9--9--9--9--9--9--9--9|-5--5--5--5--5--5--5--5|
E|-----------------------|-----------------------|-----------------------|-----------------------|
    Someday you'll find everything will be alright

Guitar 1 (Distortion)
  D5                      E5                      B5                      G5
e|-----------------------|-----------------------|-----------------------|-----------------------|
B|-----------------------|-----------------------|-----------------------|-----------------------|
G|-7--7--7--7--7--7--7--7|-9--9--9--9--9--9--9--9|-----------------------|-----------------------|
D|-7--7--7--7--7--7--7--7|-9--9--9--9--9--9--9--9|-9--9--9--9--9--9--9--9|-x--5--5-----x--5--5---|
A|-5--5--5--5--5--5--5--5|-7--7--7--7--7--7--7--7|-9--9--9--9--9--9--9--9|-x--5--5-----x--5--5---|
E|-----------------------|-----------------------|-7--7--7--7--7--7--7--7|-x--3--3-----x--3--3---|
Guitar 2 (Distortion)
  F#                      E                       F#                      D
e|-----------------------|-----------------------|-----------------------|-----------------------|
B|-----------------------|-----------------------|-----------------------|-----------------------|
G|11-11-11-11-11-11-11-11|-9--9--9--9--9--9--9--9|11-11-11-11-11-11-11-11|-x--7--7-----x--7--7---|
D|-x---x---x---x--x--x--x|-x--x--x--x--x--x--x--x|-x--x--x--x--x--x--x--x|-x--x--x-----x--x--x---|
A|-9---9---9---9--9--9--9|-7--7--7--7--7--7--7--7|-9--9--9--9--9--9--9--9|-x--5--5-----x--5--5---|
E|-----------------------|-----------------------|-----------------------|-----------------------|
  I lost myself just to get what I want again. Lost myself just to get what I want again

Guitar 1 (Distortion)
  D5                      A5                      B5                      G5
e|-----------------------|-----------------------|-----------------------|-----------------------|
B|-----------------------|-----------------------|-----------------------|-----------------------|
G|-7--7--7--7--7--7--7--7|-----------------------|-4--4--4--4--4--4--4--4|-----------------------|
D|-7--7--7--7--7--7--7--7|-7--7--7--7--7--7--7--7|-4--4--4--4--4--4--4--4|-5--5--5--5--5--5--5--5|
A|-5--5--5--5--5--5--5--5|-7--7--7--7--7--7--7--7|-2--2--2--2--2--2--2--2|-5--5--5--5--5--5--5--5|
E|-----------------------|-5--5--5--5--5--5--5--5|-----------------------|-3--3--3--3--3--3--3--3|
Guitar 2 (Distortion)
  F#                      E                       F#                      D
e|-----------------------|-----------------------|-----------------------|-----------------------|
B|-----------------------|-----------------------|-----------------------|-----------------------|
G|11-11-11-11-11-11-11-11|-9--9--9--9--9--9--9--9|11-11-11-11-11-11-11-11|-7--7--7--7--7--7--7--7|
D|-x--x--x--x--x--x--x--x|-x--x--x--x--x--x--x--x|-x--x--x--x--x--x--x--x|-x--x--x--x--x--x--x--x|
A|-9--9--9--9--9--9--9--9|-7--7--7--7--7--7--7--7|-9--9--9--9--9--9--9--9|-5--5--5--5--5--5--5--5|
E|-----------------------|-----------------------|-----------------------|-----------------------|
    Someday you'll see everything I left behind

Guitar 1 (Distortion)
  D5                      E5                      B5                      G5
e|-----------------------|-----------------------|-----------------------|-----------------------|
B|-----------------------|-----------------------|-----------------------|-----------------------|
G|-7--7--7--7--7--7--7--7|-9--9--9--9--9--9--9--9|-----------------------|-----------------------|
D|-7--7--7--7--7--7--7--7|-9--9--9--9--9--9--9--9|-9--9--9--9--9--9--9--9|-x--5--5-----x--5--5---|
A|-5--5--5--5--5--5--5--5|-7--7--7--7--7--7--7--7|-9--9--9--9--9--9--9--9|-x--5--5-----x--5--5---|
E|-----------------------|-----------------------|-7--7--7--7--7--7--7--7|-x--3--3-----x--3--3---|
Guitar 2 (Distortion)
  F#                      E                       F#                      D
e|-----------------------|-----------------------|-----------------------|-----------------------|
B|-----------------------|-----------------------|-----------------------|-----------------------|
G|11-11-11-11-11-11-11-11|-9--9--9--9--9--9--9--9|11-11-11-11-11-11-11-11|-x--7--7-----x--7--7---|
D|-x---x---x---x--x--x--x|-x--x--x--x--x--x--x--x|-x--x--x--x--x--x--x--x|-x--x--x-----x--x--x---|
A|-9---9---9---9--9--9--9|-7--7--7--7--7--7--7--7|-9--9--9--9--9--9--9--9|-x--5--5-----x--5--5---|
E|-----------------------|-----------------------|-----------------------|-----------------------|
  I lost myself just to get what I want again. Lost myself just to get - To get what I need


[Bridge]
Guitar 1 (Slight Distortion)
  D                       A                       Bm                      G
   .        .        .     .        .        .     .        .        .     .     .     .
e|-----------------------|-----------------------|-----------------------|----------------------|
B|-7--------7--------7---|-5--------5--------5---|-3--------3--------3---|-3--------3--------3--|
G|-7--------7--------7---|-6--------6--------6---|-4--------4--------4---|-4--------4--------4--|
D|-7--------7--------7---|-7--------7--------7---|-4--------4--------4---|-5--------5--------5--|
A|-----------------------|-----------------------|-----------------------|----------------------|
E|-----------------------|-----------------------|-----------------------|----------------------|
Guitar 2 (Clean)
e|-----------------------|-----------------------|-----------------------|----------------------|
B|-7---------------------|-----------------------|-7---------------------|-------3--------------|
G|-------7---------------|-------9---------------|-------7---------------|----4-----------------|
D|-----------------------|-7---------------------|-----------------------|-5--------------------|
A|-----------------------|-----------------------|-----------------------|----------------------|
E|-----------------------|-----------------------|-----------------------|----------------------|
Guitar 1 (Slight Distortion)
  D                       A                       G                       G
   .        .        .     .        .        .     
e|-----------------------|-----------------------|-----------------------|----------------------|
B|-7--------7--------7---|-5--------5--------5---|-3---------------------|(3)-------------------|
G|-7--------7--------7---|-6--------6--------6---|-4---------------------|(4)-------------------|
D|-7--------7--------7---|-7--------7--------7---|-5---------------------|(5)-------------------|
A|-----------------------|-----------------------|-----------------------|----------------------|
E|-----------------------|-----------------------|-----------------------|----------------------|
Guitar 2 (Clean)
e|-----------------------|-----------------------|-----------------------|----------------------|
B|-7---------------------|-----------------------|-3---------------------|(3)-------------------|
G|-------7---------------|-------9---------------|-4---------------------|(4)-------------------|
D|-----------------------|-7---------------------|-5---------------------|(5)-------------------|
A|-----------------------|-----------------------|-----------------------|----------------------|
E|-----------------------|-----------------------|-----------------------|----------------------|

Guitar 1 (Slight Distortion)
  D                       A                       Bm                      G
   .        .        .     .        .        .     .        .        .     .     .     .
e|-----------------------|-----------------------|-----------------------|----------------------|
B|-7--------7--------7---|-5--------5--------5---|-3--------3--------3---|-3--------3--------3--|
G|-7--------7--------7---|-6--------6--------6---|-4--------4--------4---|-4--------4--------4--|
D|-7--------7--------7---|-7--------7--------7---|-4--------4--------4---|-5--------5--------5--|
A|-----------------------|-----------------------|-----------------------|----------------------|
E|-----------------------|-----------------------|-----------------------|----------------------|
Guitar 2 (Clean)
e|-----------------------|-----------------------|-----------------------|----------------------|
B|-7---------------------|-----------------------|-7---------------------|-------3--------------|
G|-------7---------------|-------9---------------|-------7---------------|----4-----------------|
D|-----------------------|-7---------------------|-----------------------|-5--------------------|
A|-----------------------|-----------------------|-----------------------|----------------------|
E|-----------------------|-----------------------|-----------------------|----------------------|
  Sometimes to get what I want, don't get what I need. To get what I want I don't get what I need

Guitar 1 (Slight Distortion)
  D                       A                       G                       G
   .        .        .     .        .        .     
e|-----------------------|-----------------------|-----------------------|----------------------|
B|-7--------7--------7---|-5--------5--------5---|-3---------------------|(3)-------------------|
G|-7--------7--------7---|-6--------6--------6---|-4---------------------|(4)-------------------|
D|-7--------7--------7---|-7--------7--------7---|-5---------------------|(5)-------------------|
A|-----------------------|-----------------------|-----------------------|----------------------|
E|-----------------------|-----------------------|-----------------------|----------------------|
Guitar 2 (Clean)
e|-----------------------|-----------------------|-----------------------|----------------------|
B|-7---------------------|-----------------------|-3---------------------|(3)-------------------|
G|-------7---------------|-------9---------------|-4---------------------|(4)-------------------|
D|-----------------------|-7---------------------|-5---------------------|(5)-------------------|
A|-----------------------|-----------------------|-----------------------|----------------------|
E|-----------------------|-----------------------|-----------------------|----------------------|
To get what I want, don't get what I need. To get what I want I don't get what I need


[Chorus]
Guitar 1 (Slight Distortion)
  D5                      A5
e|-----------------------|-----------------------|-----------------------|-----------------------|
B|-----------------------|-----------------------|-----------------------|-----------------------|
G|-----------------------|-----------------------|-----------------------|-----------------------|
D|-7--7--7--7--7--7--7--7|-----------------------|-----------------------|-----------------------|
A|-5--5--5--5--5--5--5--5|-7--7--7--7--7--7--7--7|-----------------------|-----------------------|
E|-----------------------|-5--5--5--5--5--5--5--5|-----------------------|-----------------------|
  Someday you'll find everything will be alright

Guitar 1 (Distortion)
  D5                      E5                      B5                      G5
e|-----------------------|-----------------------|-----------------------|-----------------------|
B|-----------------------|-----------------------|-----------------------|-----------------------|
G|-7--7--7--7--7--7--7--7|-9--9--9--9--9--9--9--9|-----------------------|-----------------------|
D|-7--7--7--7--7--7--7--7|-9--9--9--9--9--9--9--9|-9--9--9--9--9--9--9--9|-x--5--5-----x--5--5---|
A|-5--5--5--5--5--5--5--5|-7--7--7--7--7--7--7--7|-9--9--9--9--9--9--9--9|-x--5--5-----x--5--5---|
E|-----------------------|-----------------------|-7--7--7--7--7--7--7--7|-x--3--3-----x--3--3---|
Guitar 2 (Distortion)
  F#                      E                       F#                      D
e|-----------------------|-----------------------|-----------------------|-----------------------|
B|-----------------------|-----------------------|-----------------------|-----------------------|
G|11-11-11-11-11-11-11-11|-9--9--9--9--9--9--9--9|11-11-11-11-11-11-11-11|-x--7--7-----x--7--7---|
D|-x---x---x---x--x--x--x|-x--x--x--x--x--x--x--x|-x--x--x--x--x--x--x--x|-x--x--x-----x--x--x---|
A|-9---9---9---9--9--9--9|-7--7--7--7--7--7--7--7|-9--9--9--9--9--9--9--9|-x--5--5-----x--5--5---|
E|-----------------------|-----------------------|-----------------------|-----------------------|
  I lost myself just to get what I want again. Lost myself just to get what I want again

Guitar 1 (Distortion)
  D5                      A5                      B5                      G5
e|-----------------------|-----------------------|-----------------------|-----------------------|
B|-----------------------|-----------------------|-----------------------|-----------------------|
G|-7--7--7--7--7--7--7--7|-----------------------|-4--4--4--4--4--4--4--4|-----------------------|
D|-7--7--7--7--7--7--7--7|-7--7--7--7--7--7--7--7|-4--4--4--4--4--4--4--4|-5--5--5--5--5--5--5--5|
A|-5--5--5--5--5--5--5--5|-7--7--7--7--7--7--7--7|-2--2--2--2--2--2--2--2|-5--5--5--5--5--5--5--5|
E|-----------------------|-5--5--5--5--5--5--5--5|-----------------------|-3--3--3--3--3--3--3--3|
Guitar 2 (Distortion)
  F#                      E                       F#                      D
e|-----------------------|-----------------------|-----------------------|-----------------------|
B|-----------------------|-----------------------|-----------------------|-----------------------|
G|11-11-11-11-11-11-11-11|-9--9--9--9--9--9--9--9|11-11-11-11-11-11-11-11|-7--7--7--7--7--7--7--7|
D|-x--x--x--x--x--x--x--x|-x--x--x--x--x--x--x--x|-x--x--x--x--x--x--x--x|-x--x--x--x--x--x--x--x|
A|-9--9--9--9--9--9--9--9|-7--7--7--7--7--7--7--7|-9--9--9--9--9--9--9--9|-5--5--5--5--5--5--5--5|
E|-----------------------|-----------------------|-----------------------|-----------------------|
    Someday you'll see everything I left behind

Guitar 1 (Distortion)
  D5                      E5                      B5                      G5
e|-----------------------|-----------------------|-----------------------|-----------------------|
B|-----------------------|-----------------------|-----------------------|-----------------------|
G|-7--7--7--7--7--7--7--7|-9--9--9--9--9--9--9--9|-----------------------|-----------------------|
D|-7--7--7--7--7--7--7--7|-9--9--9--9--9--9--9--9|-9--9--9--9--9--9--9--9|-x--5--5-----x--5--5---|
A|-5--5--5--5--5--5--5--5|-7--7--7--7--7--7--7--7|-9--9--9--9--9--9--9--9|-x--5--5-----x--5--5---|
E|-----------------------|-----------------------|-7--7--7--7--7--7--7--7|-x--3--3-----x--3--3---|
Guitar 2 (Distortion)
  F#                      E                       F#                      D
e|-----------------------|-----------------------|-----------------------|-----------------------|
B|-----------------------|-----------------------|-----------------------|-----------------------|
G|11-11-11-11-11-11-11-11|-9--9--9--9--9--9--9--9|11-11-11-11-11-11-11-11|-x--7--7-----x--7--7---|
D|-x---x---x---x--x--x--x|-x--x--x--x--x--x--x--x|-x--x--x--x--x--x--x--x|-x--x--x-----x--x--x---|
A|-9---9---9---9--9--9--9|-7--7--7--7--7--7--7--7|-9--9--9--9--9--9--9--9|-x--5--5-----x--5--5---|
E|-----------------------|-----------------------|-----------------------|-----------------------|
  I lost myself just to get what I want again. Lost myself just to get - To get what I need


[Outro]
Guitar 1 - Ska uptrokes (Clean)
  D                       G            A          D                       G           A
      .    .      .           .           .     .     .     .     .           .           .     .
e|-----------------------|-----------------------|-----------------------|-----------------------|
B|----7-----7-----7-----7|/8--8-----8/10-10----10|----7-----7-----7-----7|/8--8-----8/10-10----10|
G|----7-----7-----7-----7|/7--7-----7/-9--9-----9|----7-----7-----7-----7|/7--7-----7/-9--9-----9|
D|----7-----7-----7-----7|/5--5-----5/-7--7-----7|----7-----7-----7-----7|/5--5-----5/-7--7-----7|
A|-----------------------|/5--------5/-7---------|-----------------------|/5--------5/-7---------|
E|-----------------------|-----------------------|-----------------------|-----------------------|
Guitar 2 (Distortion)
  D                       G            A           D                       G           A
e|-----------------------|-----------------------|-----------------------|-----------------------|
B|-----------------------|-----------------------|-----------------------|-----------------------|
G|-7\--------------------|-----------------------|-7\--------------------|-----------------------|
D|-7\--------------------|-5--5-----7-----7------|-7\--------------------|-5--5-----7-----7------|
A|-5\--------------------|-5--5-----7-----7------|-5\--------------------|-5--5-----7-----7------|
E|-----------------------|-3--3-----5-----5------|-----------------------|-3--3-----5-----5------|
 To get what I need

Guitar 1 - Ska uptrokes (Clean)
  D                       G            A          D                       G           A
      .    .      .           .           .     .     .     .     .           .           .     .
e|-----------------------|-----------------------|-----------------------|-----------------------|
B|----7-----7-----7-----7|/8--8-----8/10-10----10|----7-----7-----7-----7|/8--8-----8/10-10----10|
G|----7-----7-----7-----7|/7--7-----7/-9--9-----9|----7-----7-----7-----7|/7--7-----7/-9--9-----9|
D|----7-----7-----7-----7|/5--5-----5/-7--7-----7|----7-----7-----7-----7|/5--5-----5/-7--7-----7|
A|-----------------------|/5--------5/-7---------|-----------------------|/5--------5/-7---------|
E|-----------------------|-----------------------|-----------------------|-----------------------|
Guitar 2 (Distortion)
  D                       G            A           D                       G           A
e|-----------------------|-----------------------|-----------------------|-----------------------|
B|-----------------------|-----------------------|-----------------------|-----------------------|
G|-7\--------------------|-----------------------|-7\--------------------|-----------------------|
D|-7\--------------------|-5--5-----7-----7------|-7\--------------------|-5--5-----7-----7------|
A|-5\--------------------|-5--5-----7-----7------|-5\--------------------|-5--5-----7-----7------|
E|-----------------------|-3--3-----5-----5------|-----------------------|-3--3-----5-----5------|
To get what I need


Guitar 2 (Distortion)
    D5
e|----------------|
B|----------------|
G|-7--------------|
D|-7--------------|
A|-5--------------|
E|----------------|
To get what I need

************************************

| x   Dead note
| PM  Palm mute
| /   Slide up
| \   Slide down
| .   Cut off/Staccato (above note)

************************************

            
            
Suggest correction
Creating personal tab
Creating personal tab
You can edit any tab online and save it as your Personal.

You can edit, replace or remove any tab part or add personal notes – all changes will be seen only by you.

Personal tabs can be accessed anytime from any device, even offline.
Learn more »
Give kudos to tab author, rate the tab!
1 2 3 4 5
comments
print report bad tab
guest
You may want to rate the tab now too:
select rating
Wanna post a correction for this tab? Suggest correction