Oops, an error
Loading. Please wait.

If Only chords

version 1
version 1

Whole song

Interactive

736 views 12 this week
no commentswrite comment
1 2 3 4 5
x 11
add to favorites
×
Save as Personal and add changes to this tab that will be seen only by you. Learn more ›
×
You can save this tab as Personal to edit and correct it or add notes. All changes will be seen only by you. Learn more »
launch autoscroll
font size
0
reset
transpose
0
reset
display chords
guitar tuner
edit
Autoscroll
slow
fast
+/-
esc
set tempo
stop
Strumming
There is no strumming pattern for this song yet. and get +5 IQ
SONG:   IF ONLY
ARTIST: GOLDFINGER
TAB BY: DON CZARSKI
EMAIL:  GUITARZAN7@HOTMAIL.COM


                         IF ONLY
                       GOLDFINGER

INTRO: 

    C  F F E  Am F F F E    C  F F E  Am F F F E
E ------------------------------------------------ 
B ------------------------------------------------
G ------------------------------------------------
D ------------------------------------------------
A --3--7-8-7-----7-8-8-7----3--7-8-7-----7-8-8-7--
E ------------5-----------------------5-----------


VERSE:
C                D
  If only I was taller
                    G
If I had a million dollars
                         C
Maybe then you'd be with me

C                D
  If only I was eighteen
                           G
And had the courage of the A-Team
                         C
Maybe then you'd be with me


CHORUS:
         F
But for now 
               G
I'll have to dream about your 
  C                     Am       G
Smile 'cause you're not here and all 
   F
I want to say 
    G             C
Is that I really miss you

   C  F F E C
E --------------
B ---------------
G -------------
D --------------
A -3--7-8-7-3---
E --------------


VERSE:
C                           D
  If I could surf a little better
                    G
If I had Sumner's sweater
                         C  
Maybe then you'd be with me

   C  F F E  C C
E ---------------
B ---------------
G ---------------
D ---------------
A -3--7-8-7-3-3--
E ---------------


C                D
  If only I had more time
                      G
If I had Mike Ness's hairline
                           C   
Then you'd want to be with me

   C  F F E C
E --------------
B --------------
G --------------
D --------------
A -3--7-8-7-3---
E --------------


CHORUS:
         F
But for now 
               G
I'll have to dream about your 
  C                      Am       G
Smile 'cause you're not here and all 
   F
I want to say 
    G             C
Is that I really miss you

    C  F F E  Am F F F E    C  F F E  Am F F F E
E ------------------------------------------------ 
B ------------------------------------------------
G ------------------------------------------------
D ------------------------------------------------
A --3--7-8-7-----7-8-8-7----3--7-8-7-----7-8-8-7--
E ------------5-----------------------5-----------


INSTRUMENTAL/SOLO:
Bb  Dm   Dm Am Bb   Dm    C   


BREAK:
C                    F
 If only you weren't so fine
   C             A
If only I wasn't so blind
     Bb
I'd find a way
    Dm
To make you stay 
      C              E    
Then maybe I'd take you 

E E Eb  E E Eb  E E Eb  E E Eb  E 
E E Eb  E E Eb  E E Eb  E E Eb  E 
E E Eb  E E Eb  E E Eb  E E Eb  E 
E E Eb  E E Eb  E E Eb  E E Eb  E 
 
VERSE:
D                         E 
  If I woke up with all these things
                           A
Would it even change your feelings
                     D
None of that is even me 


OUTRO/CHORUS:
 D   A   G
But for now 
              A
I'll have to wait another 
 D                Bm
Week to see your face 
     A     G
And all I want to say 
                  D
Is that I really miss you
Suggest correction
Creating personal tab
Creating personal tab
You can edit any tab online and save it as your Personal.

You can edit, replace or remove any tab part or add personal notes – all changes will be seen only by you.

Personal tabs can be accessed anytime from any device, even offline.
Learn more »
comments
print report bad tab
guest
You may want to rate the tab now too:
select rating
Wanna post a correction for this tab? Suggest correction