Oops, an error
Loading. Please wait.

January bass

version 2
version 2

Whole song

Interactive

239 views 1 this week
1 commentread comment
1 2 3 4 5
2 more votes to show rating
add to favorites
×
Save as Personal and add changes to this tab that will be seen only by you. Learn more ›
×
You can save this tab as Personal to edit and correct it or add notes. All changes will be seen only by you. Learn more »
launch autoscroll
font size
0
reset
guitar tuner
edit
Autoscroll
slow
fast
+/-
esc
set tempo
stop
-------------------------------------------------------------------------------
			     January - Goldfinger
-------------------------------------------------------------------------------

Tabbed By : identityxcrysis
e-mail: xrunawayboyx@hotmail.com

Tuning: Standard (EADG)

This is a fairly easy song, pretty basic, but it's got a few cool fills and such.  I don't 
believe its 100% perfect, but its definitely good enough to get you by in any cover, or 
any Goldfinger fan!
You do need to listen pretty closely to the bass to get the right rhythm and feel for 
it pretty much goes along with the guitar, but you have to get the stocattoes and such right.


Intro(And re-intro)

G|--------------------------|
D|--------------------------|
A|------0~------0~----------|
E|-0~------0~---------------|

First verse x 4
G|-----------------------------------------------|
D|-----------------------7-77-----7-77h8---------|
A|----7-77-----7-77----0------0-0----------------|
E|-0-------0-0------0----------------------------|

pre-chorus                          |---Then I'd know how much I miss her...
G|----------------------------------------2---2---2----|
D|------------------------------------------2---2--2---|
A|--2-222-0-2-222-0--0-000---0-000---------------------|
E|-------------------------0-------0-------------------|

1st Chorus
G|---------------------------------------------------------------------------|
D|---------------------------------------------------------------------------|
A|---7-77-----7-77---4-4440-4-4440-2-2220-2-2220-0-0000-0-0000---------------|
E|-0------0-0------0---------------------------------------------------------|

2nd pre-chorus
G|-4---4-----2---2----4---4---2---2-4-2-0------------------------------------|
D|---4---4~----2---2----4---4---2--------------------------------------------|
A|---------------------------------------------------------------------------|
E|---------------------------------------------------------------------------|

2nd chorus, and all other choruses
G|------------------------------------------------------22442200-------------|
D|---------------------------------------------------------------------------|
A|---7-77-----7-77---4-4440-4-4440-2-2220-2-2220-0-0000----------------------|
E|-0------0-0------0---------------------------------------------------------|

bridge
G|-------------------------------------|
D|-------------------------------------|
A|-4-4-4444--------------------7xx-6xx-|
E|----------4-4-4444-5-xx-5-xx---------|

G|----------------------------------------------------------|
D|------------------------------------------------99776644--|
A|-4-4-4444---------------------------------667799----------|
E|-----------4-4-4444-5-5-5555-5-5-5555--77-----------------|

interlude
G|--------------------------1h222-1h222------------|
D|-22222222224422----------------------------------|
A|---------------44-0000000------------------------|
E|-------------------------------------------------|

"when will you know, just how you feel?"
G|-------------------------2---2~----|
D|-------2-------------------2-------|
A|-3h444---444-3h444-3h444-----------|
E|-----------------------------------|

Outro - repeat as needed
G|--------------------|
D|--------------------|
A|--7~---/9-0~--2-----|
E|--------------------|

End on E
| /  slide up
| \  slide down
| h  hammer-on
| p  pull-off
| ~  let ring
| +  harmonic
| x  Mute note
===============================================================================

            
            
Suggest correction
Creating personal tab
Creating personal tab
You can edit any tab online and save it as your Personal.

You can edit, replace or remove any tab part or add personal notes – all changes will be seen only by you.

Personal tabs can be accessed anytime from any device, even offline.
Learn more »
Give kudos to tab author, rate the tab!
1 2 3 4 5
comments
print report bad tab
1 comment total.
0 reply
chrisjenks 2,712 Jul 08, 2008 07:52 AM

way better than the other version

guest
You may want to rate the tab now too:
select rating
Wanna post a correction for this tab? Suggest correction