Oops, an error
Loading. Please wait.

Mable bass

version 2
version 2

Whole song

Interactive

1,716 views 9 this week
1 commentread comment
1 2 3 4 5
x 3
add to favorites
×
Save as Personal and add changes to this tab that will be seen only by you. Learn more ›
×
You can save this tab as Personal to edit and correct it or add notes. All changes will be seen only by you. Learn more »
launch autoscroll
font size
0
reset
guitar tuner
edit
Autoscroll
slow
fast
+/-
esc
set tempo
stop
Author
Difficulty
This song is great and a lot of fun to play on bass, its not that hard once you get the
of it.

For the verse, Im giving you the basic tab, but you have to listen to the song to figure
the rythm.

Intro/Verse 1
G|------------------------------------------|
D|------------------------------------------|
A|----------------------3333333333333333----|        x4
E|----33333333-00000000---------------------|

Pre-Chorus (walk the mile, crack a smile...)
G|----------------------------------------|
D|----------------------------------------|
A|---------------------------3-2-0-0-5----|
E|----2-2-3-5--2-2-3-5--------------------|

I dont think its really played like that, but it sounds cool. If you wanna play it the
its played, then do this:
G|----------------------------|
D|----------------------------|
A|----5-55-5-55--3-2-0-0-5----|
E|----------------------------|

Chorus
G|------------------------------------------------------------|
D|------------------------------------------------------------|
A|------55----22-33333333-55555555----55----22-333333-3/55----|
E|----3----00-----------------------3----00-------------------|

Post-Chorus/Verse 2
G|------------------------------------------|
D|------------------------------------------|
A|----------------------3333333333333333----|        x3
E|----33333333-00000000---------------------|

Pre-Chorus (I'm with her now, until I die...)
G|----------------------------------------|
D|----------------------------------------|
A|---------------------------3-2-0-0-5----|
E|----2-2-3-5--2-2-3-5--------------------|

Again, you can do this:
G|----------------------------|
D|----------------------------|
A|----5-55-5-55--3-2-0-0-5----|
E|----------------------------|

Chorus
G|------------------------------------------------------------|
D|------------------------------------------------------------|
A|------55----22-33333333-55555555----55----22-333333-3/55----|
E|----3----00-----------------------3----00-------------------|

Interlude
G|---------------------------------------------------------|
D|------------------------------------------------2--------|
A|------------------3-33-33-33-3----2------2---33---3-5----|
E|----3-33-3-0-00-0--------------33---3-00---0-------------|

G|--------------------------------------------|
D|--------------------------------------------|
A|----5555555555555555-3333-2222-0000-5555----|
E|--------------------------------------------|

Final Choruses
G|-------------------------------------------|
D|-------------------------------------------|
A|----------------------33333333-55555555----|        x2
E|----33333333-00000000----------------------|

G|------------------------------------------------------------|
D|------------------------------------------------------------|
A|------55----22-33333333-55555555----55----22-333333-3/55----|        x2
E|----3----00-----------------------3----00-------------------|


OK, I kno its not perfect. On the chorus, I think he uses some walks or something. But 
are the basics, so good luck and have fun. If you have any problems, email me at
funwithgoats1118@aol.com.

            
            
Suggest correction
Creating personal tab
Creating personal tab
You can edit any tab online and save it as your Personal.

You can edit, replace or remove any tab part or add personal notes – all changes will be seen only by you.

Personal tabs can be accessed anytime from any device, even offline.
Learn more »
Give kudos to tab author, rate the tab!
1 2 3 4 5
comments
print report bad tab
1 comment total.
0 reply
i like tea 10 Jan 03, 2012 05:03 AM

Cool tab, bro.

guest
You may want to rate the tab now too:
select rating
Wanna post a correction for this tab? Suggest correction