Oops, an error
Loading. Please wait.

Mable tab

version 3
version 3

Whole song

Interactive

405 views 6 this week
no commentswrite comment
1 2 3 4 5
3 more votes to show rating
add to favorites
×
Save as Personal and add changes to this tab that will be seen only by you. Learn more ›
×
You can save this tab as Personal to edit and correct it or add notes. All changes will be seen only by you. Learn more »
launch autoscroll
font size
0
reset
how to read this tab
guitar tuner
edit
Autoscroll
slow
fast
+/-
esc
set tempo
stop
Author
Difficulty
                  Band:Goldfinger
                  Song title:Mable
                  Album:Goldfinger(1996)
                      Tabbed By: Laller
                          Intro                                   <--|
E|-3-3-5-7--3-3-5-7--3-3-5-7-8-5-7-5-3----------------------------|x2|
B|----------------------------------------------------------------|  |
G|----------------------------------------------------------------|  |
D|----------------------------------------------------------------|  |
A|----------------------------------------------------------------|  |
E|----------------------------------------------------------------|  |
                                                                  <--|
Bass part for the first sentence                                  <--|
G|----------------------------------------------------------------|  |
D|----------------------------------------------------------------|  |
A|-------------------------3-3-3-3-3-3-3-3-3-3-3-3----------------|  |
E|-3-3-3-3-3-3-0-0-0-0-0-0----------------------------------------|  |
  I met her sunday that was yesterday the girl I new from 1990    <--|
            
                  here comes the power cords for both guitars     <--|
    G G G G G G G G E E E E E E E E C C C C C C C C C C C C C C C C  |
E|-----------------------------------------------------------------| |
B|-----------------------------------------------------------------| |
G|----------------------------------5-5-5-5-5-5-5-5-5-5-5-5-5-5-5-5| |
D|--5-5-5-5-5-5-5-5-2-2-2-2-2-2-2-2-5-5-5-5-5-5-5-5-5-5-5-5-5-5-5-5| |
A|--5-5-5-5-5-5-5-5-2-2-2-2-2-2-2-2-3-3-3-3-3-3-3-3-3-3-3-3-3-3-3-3| |
E|--3-3-3-3-3-3-3-3-0-0-0-0-0-0-0-0--------------------------------| |
                                                                     |----|
Her eyes were hazel her name was mable I kissed her once and now I'm able |
                                                                   <------|
                                                                                       <-| 
E|-3-5-3-5-3-5-3-5-3-5|---------------------------------------------------------------|  |
B|-3-5-3-5-3-5-3-5-3-5|---------------------------------------------------------------|  |
G|--------------------|5-4-2-2-4-2------7-7-----4-4--5-5-5-5-5-5-5-5-7-7-7-7-7-7-7-7--|  |
D|--------------------|5-2-2-2-4-2-5-5--7-7-2-2-4-4--3-3-3-3-3-3-3-3-7-7-7-7-7-7-7-7--|  |
A|--------------------|3-2-0-2-2-0-5-5--5-5-2-2-2-2--3-3-3-3-3-3-3-3-5-5-5-5-5-5-5-5--|  |
E|--------------------|------------3-3------0-0---------------------------------------|  |
                                                                                         |
  To walk a mile      |She makes me wanna kiss all,   she makes me feel like my mom      |
  Crack a smile       |the babies hug puppy dogs                                       <-| 
                                                                   <-|   
 E|----------------------------------------------------------------| |
 B|----------------------------------------------------------------| |
 G|----7--7----------4--4--5-5-5-5-5-5-5-5--7-7-7------------------| |
 D|-5--7--7---2--2---4--4--5-5-5-5-5-5-5-5--7-7-7------------------| |
 A|-3--5--5---2--2---2--2--3-3-3-3-3-3-3-3--5-5-5------------------| |
 E|-3---------0--0-------------------------------------------------| |
 smell a flower and plant|I gotta say that mable -- shes the bomb    |
               a tree    |                                         <-|
                 
                 here come the intro again....play once            <-|
E|-3-3-5-7--3-3-5-7--3-3-5-7-8-5-7-5-3----------------------------|x1|
B|----------------------------------------------------------------|  |
G|----------------------------------------------------------------|  |
D|----------------------------------------------------------------|  |
A|----------------------------------------------------------------|  |
E|----------------------------------------------------------------|  |
                                                                   <-|
                 Second verse                                      <-|
    G G G G G G G G E E E E E E E E C C C C C C C C C C C C C C C C  |
E|-----------------------------------------------------------------| |
B|-----------------------------------------------------------------| |
G|----------------------------------5-5-5-5-5-5-5-5-5-5-5-5-5-5-5-5| |
D|--5-5-5-5-5-5-5-5-2-2-2-2-2-2-2-2-5-5-5-5-5-5-5-5-5-5-5-5-5-5-5-5| |
A|--5-5-5-5-5-5-5-5-2-2-2-2-2-2-2-2-3-3-3-3-3-3-3-3-3-3-3-3-3-3-3-3| |
E|--3-3-3-3-3-3-3-3-0-0-0-0-0-0-0-0--------------------------------| |
Now its monday, better than sunday Mable told me that she would stay |
                                                                   <-|
                                                                   <-|
    G G G G G G G G E E E E E E E E C C C C C C C C C C C C C C C C  |
E|-----------------------------------------------------------------| |
B|-----------------------------------------------------------------| |
G|----------------------------------5-5-5-5-5-5-5-5-5-5-5-5-5-5-5-5| |
D|--5-5-5-5-5-5-5-5-2-2-2-2-2-2-2-2-5-5-5-5-5-5-5-5-5-5-5-5-5-5-5-5| |
A|--5-5-5-5-5-5-5-5-2-2-2-2-2-2-2-2-3-3-3-3-3-3-3-3-3-3-3-3-3-3-3-3| |
E|--3-3-3-3-3-3-3-3-0-0-0-0-0-0-0-0--------------------------------| |
Her curly hair shines in her eyes Boy that mable sure is fine        |
                                                                   <-|
                                                                                       <-| 
E|-3-5-3-5-3-5-3-5-3-5|---------------------------------------------------------------|  |
B|-3-5-3-5-3-5-3-5-3-5|---------------------------------------------------------------|  |
G|--------------------|5-4-2-2-4-2------7-7-----4-4--5-5-5-5-5-5-5-5-7-7-7-7-7-7-7-7--|  |
D|--------------------|5-2-2-2-4-2-5-5--7-7-2-2-4-4--3-3-3-3-3-3-3-3-7-7-7-7-7-7-7-7--|  |
A|--------------------|3-2-0-2-2-0-5-5--5-5-2-2-2-2--3-3-3-3-3-3-3-3-5-5-5-5-5-5-5-5--|  |
E|--------------------|------------3-3------0-0---------------------------------------|  |
 Im with her now until|                                                                  |
       i die          |She makes me wanna kiss all,   she makes me feel like my mom      |
                      |the babies hug puppy dogs                                       <-| 

                                                                   <-|   
 E|----------------------------------------------------------------| |
 B|----------------------------------------------------------------| |
 G|----7--7----------4--4--5-5-5-5-5-5-5-5--7-7-7------------------| |
 D|-5--7--7---2--2---4--4--5-5-5-5-5-5-5-5--7-7-7------------------| |
 A|-3--5--5---2--2---2--2--3-3-3-3-3-3-3-3--5-5-5------------------| |
 E|-3---------0--0-------------------------------------------------| |
 smell a flower and plant|I gotta say that mable -- shes the bomb    |
               a tree    |                                         <-|

                     in this part both guitar plays

                                                                  <--|
E|----------------------------------------------------------------|  |
B|--3--3--3--3----------------------------------------------------|  |
G|----------------------------------------------------------------|  |
D|----------------------------------------------------------------|  |
A|----------------------------------------------------------------|  |
E|----------------------------------------------------------------|  |
                                                                  <--|
                      
                       
         


                in this part only the lead guitar plays                                  <--|
E|-7---12--12--12-19---------------------------------------------------------------------|  |
B|--8----12-----12----17----16----17----------------17---17------------------------------|  |
G|-----------------------17---17----16--16---16-------16---16----------------------------|  |
D|------------------------------------17-------17----------------------------------------|  |
A|---------------------------------------------------------------------------------------|  |
E|---------------------------------------------------------------------------------------|  |
  Then on tuesday, mable left me I heard shes goin out with charlie                         |
  She saw his package from what I know she said:That looks like a tube of cookie dough!  <--|
     
        charley (lead guitar) part,this is when they speed up

                                                                                         <--|
E|-5-3-5-3-5-3-5-3-5-3-------------------------------------------------------------------|  |
B|-5-3-5-3-5-3-5-5-5-3-------------------------------------------------------------------|  |
G|-----------------------5-5-5--4-4-4--2-2-2-2--4-2--------------------------------------|  |
D|-----------------------5-5-3--4-2-4--2-2-2-2--4-2--5-----------------------------------|  |
A|-----------------------3-3-3--2-2-2--0-0-0-0--2-0--5-----------------------------------|  |
E|---------------------------------------------------3-----------------------------------|  |
                                                                                         <--|  
                               john (rythym guitar) plays this                           <--|
                                                                                            |   
E|-3-3-3-3-3-3-3-3-3-3-3-3-3-3-3-3-5-5-5-5-5-5-5-5-0-0-0-0-8--8--8--8--------------------|  |
B|-------------------------------------------------7-7-7-7-------------------------------|  |
G|-0-0-0-0-0-0-0-0-0-0-0-0-0-0-0-0-7-7-7-7-7-7-7-7---------10-10-10-10-------------------|  |
D|---------------------------------------------------------------------------------------|  |
A|---------------------------------------------------------------------------------------|  |
E|---------------------------------------------------------------------------------------|  | 
Mine, she said then, looks like a small Pencil with broken lead                          <--|
                                                                                         
                     Then both guitar plays this                  <--|
    G G G G G G G G E E E E E E E E C C C C C C C C C C C C C C C C  |
E|-----------------------------------------------------------------| |
B|-----------------------------------------------------------------| |
G|----------------------------------5-5-5-5-5-5-5-5-5-7-7-7-7-7-7-7| |
D|--5-5-5-5-5-5-5-5-2-2-2-2-2-2-2-2-5-5-5-5-5-5-5-5-5-7-7-7-7-7-7-7| |
A|--5-5-5-5-5-5-5-5-2-2-2-2-2-2-2-2-3-3-3-3-3-3-3-3-3-5-5-5-5-5-5-5| |
E|--3-3-3-3-3-3-3-3-0-0-0-0-0-0-0-0--------------------------------| |
Rabies got the puppy dogs And now I really need my mom               |powerchords
    G G G G G G G G E E E E E E E E C C C C C C C C C C C C C C C C  |
E|-----------------------------------------------------------------| |
B|-----------------------------------------------------------------| |
G|----------------------------------5-5-5-5-5-5-5-5-5-7-7-7-7-7-7-7| |
D|--5-5-5-5-5-5-5-5-2-2-2-2-2-2-2-2-5-5-5-5-5-5-5-5-5-7-7-7-7-7-7-7| |
A|--5-5-5-5-5-5-5-5-2-2-2-2-2-2-2-2-3-3-3-3-3-3-3-3-3-5-5-5-5-5-5-5| |
E|--3-3-3-3-3-3-3-3-0-0-0-0-0-0-0-0--------------------------------| |---------|
I bought her flowers, so woe is me It sucks I still think mable --shes the bomb|
                                                                  <------------| 
                            and finally back to chorus                               <---|
E|------------------------------------------------------------------------------------|  |
B|------------------------------------------------------------------------------------|  |
G|5-4-2-2-4-2------7-7-----4-4--5-5-5-5-5-5-5-5-7-7-7-7-7-7-7-7-----------------------|  |
D|5-2-2-2-4-2-5-5--7-7-2-2-4-4--3-3-3-3-3-3-3-3-7-7-7-7-7-7-7-7-----------------------|  |
A|3-2-0-2-2-0-5-5--5-5-2-2-2-2--3-3-3-3-3-3-3-3-5-5-5-5-5-5-5-5-----------------------|  |
E|------------3-3------0-0------------------------------------------------------------|  |
    Rabies got the puppy dogs   And now I really need my mom                             |
                                                                                         |
E|------------------------------------------------------------------------------------|  |
B|------------------------------------------------------------------------------------|  |
G|5-4-2-2-4-2------7-7-----4-4--5-5-5-5-5-5-5-5-7-7-7-7-7-7-7-7-----------------------|  |
D|5-2-2-2-4-2-5-5--7-7-2-2-4-4--3-3-3-3-3-3-3-3-7-7-7-7-7-7-7-7-----------------------|  |
A|3-2-0-2-2-0-5-5--5-5-2-2-2-2--3-3-3-3-3-3-3-3-5-5-5-5-5-5-5-5-----------------------|  |
E|------------3-3------0-0------------------------------------------------------------|  |     
I bought her flowers, so woe is me,It sucks I still think mable -- shes the bomb      <--|

that's it,easy enough huh???
any comments,or corrections please email at:quaker78@msn.com

            
            
Suggest correction
Creating personal tab
Creating personal tab
You can edit any tab online and save it as your Personal.

You can edit, replace or remove any tab part or add personal notes – all changes will be seen only by you.

Personal tabs can be accessed anytime from any device, even offline.
Learn more »
Give kudos to tab author, rate the tab!
1 2 3 4 5
comments
print report bad tab
guest
You may want to rate the tab now too:
select rating
Wanna post a correction for this tab? Suggest correction